Oops, an error
Loading. Please wait.

Tu Frialdad Bass Tab

190 views 1 this week
no commentswrite comment
1 2 3 4 5
3 more votes to show rating
add to favorites
launch autoscroll
font size
0
reset
guitar tuner
Autoscroll
slow
fast
+/-
esc
set tempo
stop
Help us to improve Ultimate-Guitar.com Take our survey!
×
MELODIA
G|----------------|----------------|----------------|----------------|
D|----------------|----------------|----------------|----------------|
A|----------------|----------------|----------------|----------------|
E|----------------|----------------|--------------3-|/10-------------|
                       PORQUE A MI ME ATORMENTA EN EL ALMA

G|----------------|----------------|----------------|----------------|
D|----------------|----------------|----------------|----------------|
A|----------------|----------------|----------------|----------------|
E|----------------|----------------|-------------3--|/8--------------|
                       YO QUISIERA SABER SI TU ALMA ES IGUAL
                                    ...


G|----------------|----------------|----------------|----------------|
D|----------------|----------------|----------------|----------------|
A|----------------|----------------|----------------|----------------|
E|-3--------------|-8--------------|-8--------------|4--------------|
                        Y  SUEÑO            CON  GRAN PASION

G|----------------|----------------|----------------|----------------|
D|----------------|----------------|----------------|----------------|
A|----------------|----------------|----------------|----------------|
E|-4--------------|-4--3-----------|-3--------------|-10-------------|
                        QUE VIVES   PARA MI
ESTRIBILLO
G|----------------|----------------|----------------|----------------|
D|----------------|----------------|----------------|----------------|
A|----------------|----------------|----------------|----------------|
E|-10--10---------|-3--------------|-3--------------|-7--8-----------|
                        NANARA NANA   EH EH EH
G|----------------|----------------|----------------|----------------|
D|----------------|----------------|----------------|----------------|
A|----------------|----------------|----------------|----------------|
E|-8--------------|-2--3-----------|-3--------------|-7--8-----------|

                        NANARA NANA   EH EH EH
G|----------------|----------------|----------------|----------------|
D|----------------|----------------|----------------|----------------|
A|----------------|----------------|----------------|----------------|
E|-8--------------|-2--3-----------|-3--------------|-10-------------|

MELODIA
G|----------------|----------------|----------------|----------------|
D|----------------|----------------|----------------|------------5---|
A|----------------|------------5---|-2--3---5--6----|-2--3---5--6----|
E|-2--3---5--6----|-2--3---5--6----|----------------|----------------|
                       CADA  NOCHE MI VIDA ES PARA TI

G|----------------|----------------|----------------|------------2---|
D|----------------|----------------|--------2--3----|--------2--3----|
A|----------------|------------5---|-4--5-----------|-4--5-----------|
E|-2--3---5--6----|-2--3---5--6----|----------------|----------------|

G|----------------|----------------|
D|----------------|----------------|
A|----------------|------------5---|
E|-2--3---5--6----|-2--3---5--6----|

G|----------------|----------------|----------------|----------------|
D|----------------|----------------|----------------|------------5---|
A|----------------|------------5---|-2--3---5--6----|-2--3---5--6----|
E|-2--3---5--6----|-2--3---5--6----|----------------|----------------|

G|----------------|----------------|----------------|------------2---|
D|----------------|----------------|--------2--3----|--------2--3----|
A|----------------|------------5---|-4--5-----------|-4--5-----------|
E|-2--3---5--6----|-2--3---5--6----|----------------|----------------|

G|----------------|----------------|----------------|----------------|
D|----------------|----------------|----------------|----------------|
A|----------------|------------5---|----------------|------------5---|
E|-2--3---5--6----|-2--3---5--6----|-2--3---5--6----|-2--3---5--6----|

G|----------------|----------------|----------------|----------------|
D|----------------|------------5---|----------------|----------------|
A|-2--3---5--6----|-2--3---5--6----|----------------|----------------|
E|----------------|----------------|-3--4---3--4----|-3--4---3--4----|

G|----------------|----------------|----------------|------------2---|
D|----------------|----------------|--------2--3----|--------2--3----|
A|----------------|------------5---|-4--5-----------|-4--5-----------|
E|-2--3---5--6----|-2--3---5--6----|----------------|----------------|

ESTRIBILLO
G|----------------|----------------|----------------|----------------|
D|----------------|----------------|----------------|------------5---|
A|----------------|------------5---|-2--3---5--6----|-2--3---5--6----|x6
E|-2--3---5--6----|-2--3---5--6----|----------------|----------------|

G|----------------|----------------|----------------|----------------|
D|----------------|----------------|----------------|----------------|
A|----------------|------------5---|-------5--------|----------------|
E|-2--3---5--6----|-2--3---5--6----|----------------|-------3--------|

Linea de bajo interpretada por el fantástico bajista Manolo Rosa.
A ver si os animáis y subir otra tablatura para bajo de Triana!!
¿Por qué no formamos un grupo para versionar a Triana? Pégame el toque!
Suggest correction
Give kudos to tab author, rate the tab!
1 2 3 4 5
comments
print report bad tab
guest
You may want to rate the tab now too:
select rating
Wanna post a correction for this tab? Suggest correction