Oops, an error
Loading. Please wait.

Una Noche De Amor Tab

133 views 1 this week
no commentswrite comment
1 2 3 4 5
3 more votes to show rating
add to favorites
launch autoscroll
font size
0
reset
how to read this tab
guitar tuner
Autoscroll
slow
fast
+/-
esc
set tempo
stop
Help us to improve Ultimate-Guitar.com Take our survey!
×
Esta es el punteo intro

               C    D        Em
--------------------------------------------------
------------------8h10----------------------------
-9-11-12-11-11h12------12-11-11h12p11-9-----------
----------------------------------------9---------
--------------------------------------------------
--------------------------------------------------
                C                Bm   Em
--------------------------------------------------
---------8h10-8h10p8-10b12b10b12b10---------------
-9-11-12----------------------------11h12p11---9--
---------------------------------------------9----
--------------------------------------------------
--------------------------------------------------

--------------------------------------------------
--------------------------------------------------
--------------------------------------------------
-9-12-9-12---------------------------------------
-----------12p9----12p9h12p9----------------------
----------------12-----------12-------------------
Suggest correction
Give kudos to tab author, rate the tab!
1 2 3 4 5
comments
print report bad tab
guest
You may want to rate the tab now too:
select rating
Wanna post a correction for this tab? Suggest correction