Oops, an error
Loading. Please wait.

Did Wrong Tab

609 views 3 this week
no commentswrite comment
1 2 3 4 5
please rate
add to favorites
launch autoscroll
font size
0
reset
how to read this tab
guitar tuner
Autoscroll
slow
fast
+/-
esc
set tempo
stop
Help us to improve Ultimate-Guitar.com Take our survey!
×
Author
Did Wrong
Tribal Seeds



Intro
|---------------------------------------------------------------------|
|---------------------------------------------------------------------|
|---------------------------------------------------------------------|
|----3-3-3-3-2------------2--3------3-3-3-3-2-------------------------|
|--3-----------5-----3-5----------3-----------5------1-1-1-1-3-3-3----|
|------------------------------------------------------------------1--|

Verse
|--8----8----8----8----5---7---8---8---|
|--10---10---10---10---6---8---10--10--|
|--10---10---10---10---7---9---10--10--|
|--10---10---10---10---7---9---10--10--|
|--8----8----8----8----5---7---8---8---|
|--------------------------------------|

Chours
|--8----8-8-------------------10-8----8----|
|----10----10----8---8-8-----------10--10--|
|------------------10----10----------------|
|------------------------------------------|
|------------------------------------------|
|------------------------------------------|

Post Chorus
|--17--17-15-15-13---12--12-13--13-12--10--10-12--12-12-13--13-13-13--|
|---------------------------------------------------------------------|
|---------------------------------------------------------------------|
|---------------------------------------------------------------------|
|---------------------------------------------------------------------|
|---------------------------------------------------------------------|

Right before second verse
|---------------------------------|
|----------------9----9--11-11b---|
|--8h10p8----8h10--10-------10b---|
|---------------------------------|
|---------------------------------|
|---------------------------------|


Many measures of this is  played near the end
|---5-8-5--5-8-5---5-8-5--5-8-5---|
|--6------6------6-------6--------|
|---------------------------------|
|---------------------------------|
|---------------------------------|
|---------------------------------|

Guitar for last Chorus
|------------------------------|
|--10--11--10--10--10-----10---|
|------------------------------|
|------------------------------|
|------------------------------|
|------------------------------|

Threw this together quickly, still a work in progress. Let me know if you can help me 
add anything.
Suggest correction
Give kudos to tab author, rate the tab!
1 2 3 4 5
comments
print report bad tab
guest
You may want to rate the tab now too:
select rating
Wanna post a correction for this tab? Suggest correction