Oops, an error
Loading. Please wait.

In Your Eyes Tab

9,786 views 72 this week
no commentswrite comment
1 2 3 4 5
excellent!
x 4
add to favorites
launch autoscroll
font size
0
reset
how to read this tab
guitar tuner
Tab Pro tools
  • play this tab
  • loop segment
  • change instrument
  • show fretboard
  • metronome
Autoscroll
slow
fast
+/-
esc
set tempo
stop
Contributor
In Your Eyes
Tribal Seeds
Soundwaves - EP

Standard Tuning

Pattern used throughout song:
|--6---6---6---6---4---4---4---4---| 
|--6---6---7---7---4---4---6---6---|                                                    
|--6---6---8---8---5---5---6---5---|      
|--8---8---8---8---6---6---6---6---|  it also sounds fine to just play the C# twice
|--8---8---6---6---6---6---4---3---|
|--6---6-----------4---4-----------|


Intro (Bass):
|------------------------------------------------------|
|------------------------------------------------------|
|------------------------------------------------------|
|------------------------------------------------------|
|----------------8-6-6-6-----6----------4-4-4--3-3-3---|
|--6-6-6-4-6-------------------4-4-4-------------------|

keys
|----------------------------------------16------------|
|----18-16--------18-16---------18-16-------19-18-16---|
|--15------18--17-------18---13------18----------------|
|------------------------------------------------------|
|------------------------------------------------------|
|------------------------------------------------------|

|----------6-4-------4h6p4------------|
|--4/6---------6-4---------4h6p4------|  
|-------------------------------------|    (x2)
|-------------------------------------|
|-------------------------------------|
|-------------------------------------|

right before he starts singing guitar does this fill
|--------4---------------|
|--4--6----6--4----4-----|
|----------------6---3---|
|------------------------|
|------------------------|
|------------------------|



Chorus:
|----------6-4-------4h6p4------------|
|--4/6---------6-4---------4h6p4------|  
|-------------------------------------|    (x2)
|-------------------------------------|
|-------------------------------------|
|-------------------------------------|


|-------6---13-11-------------------------------------11h13p11---8h9p8--|
|--4/6----9----------9h11p9-----------9--9/11---------------------------|
|---------------------------10-8---10-----------------------------------|
|--------------------------------10-------------------------------------|
|-----------------------------------------------------------------------|
|-----------------------------------------------------------------------|

Interlude (not guitar)
|-------11--9--8-------------------------------------16-14-13-----------|
|--11-------------11--9----9-11-9---9-11-9--9-11--------------16-14-----|
|------------------------10-------10------10----------------------------|
|-----------------------------------------------------------------------|
|-----------------------------------------------------------------------|
|-----------------------------------------------------------------------|

|-----13----------------------------------------------------------------|
|--16---16-14-13---9----------9-11-9---9-11-9--9-11------9-11-9---------|
|---------------------10----10-------10------10--------10------10-------|
|-----------------------------------------------------------------------|
|-----------------------------------------------------------------------|
|-----------------------------------------------------------------------|

|---------------------------------------13-11-9--------|
|-----9-11-----9-11-----9-11-----9-11-----------13-----|
|--10-------10-------10-------10-----------------------|
|------------------------------------------------------|
|------------------------------------------------------|
|------------------------------------------------------|

|---------------------------------------16-14-13-------|
|-----9-11-----9-11-----9-11-----9-11-----------16-14--|
|--10-------10-------10-------10-----------------------|
|------------------------------------------------------|
|------------------------------------------------------|
|------------------------------------------------------|

|-----13----------------------------------------------------------------|
|--16---16-14-13---9----------9-11-9---9-11-9--9-11------9-11-9---------|
|---------------------10----10-------10------10--------10------10-------|
|-----------------------------------------------------------------------|
|-----------------------------------------------------------------------|
|-----------------------------------------------------------------------|



Beautiful song for a beautiful girl

Peace!
comments
print report bad tab
I want to post or [tab]
guest
You may want to rate the tab now too:
select rating
Please do not post tabs as comments. Select "correction" instead!