Oops, an error
Loading. Please wait.

Dancehall Tab

version 2
version 2

Intro

by Tribes
789 views 6 this week
1 commentread comment
1 2 3 4 5
x 5
add to favorites
launch autoscroll
font size
0
reset
how to read this tab
guitar tuner
×
Best way to learn
"Dancehall"
Autoscroll
slow
fast
+/-
esc
set tempo
stop
Author
I don't usually post intros but I felt the first one was wrong so I decided to attempt 
it myself, enjoy :)


E|------------|------------|------------|------------|
B|-------2--5-|-7--5-------|------------|------------|
G|-2--2-------|-------6--4-|-2----------|------------|
D|------------|------------|------------|------------|
A|------------|------------|------------|------------|
E|------------|------------|------------|------------|
Suggest correction
comments
print report bad tab
1 comment total.
+1 reply
oliver.waddup 10 Feb 21, 2014 12:36 PM

I think this tab is awesome.. it helped me to write this.. which i think is a bit more accurate.

E|------------|------------|------------|------------|
B|------------|------------|------------|------------|
G|------------|------------|------------|------------|
D|-------2-4-2|------------|------------|------------|
A|-0-0-4------|-4-2-0------|------------|------------|
E|------------|------------|------------|------------|

guest
You may want to rate the tab now too:
select rating
Wanna post a correction for this tab? Suggest correction