Oops, an error
Loading. Please wait.

Himalaya Chords

2,733 views 1 this week
3 commentsread comments
1 2 3 4 5
x 3
add to favorites
launch autoscroll
font size
0
reset
transpose
0
reset
display chords
guitar tuner
Autoscroll
slow
fast
+/-
esc
set tempo
stop
Help us to improve Ultimate-Guitar.com Take our survey!
×
Author
-----------------------------------------------------------------------------
                             Tribes - Himalaya
-----------------------------------------------------------------------------
Tabbed by: nmeben


Intro: 
E     C#m   Am E

Just after the last E, a guitar plays this:  
e|--------5p4p0--------------------------------------------------------------|
B|---------------0-0-5~------------------------------------------------------|
G|----------------1----------------------------------------------------------|
D|---------------------------------------------------------------------------|
A|---------------------------------------------------------------------------|
E|---------------------------------------------------------------------------|


Verse:

E                         C#m
  Could you do something
Am    E         C#m    Am
For   me

E                         C#m
 I feel a little different
Am    E         C#m  Am
Late- ly


G#m           E
I just can go anywhere when I 
G#m           E
h-ow-am-a (?) heart    and I
G#m           A
I just can't tell      


Chorus:

*This is the guitar tab, but there are chords below*
e|--------------------------------------------------------|
B|--------------------------------------------------------|
G|--1---------1------------1------4-3-2--1----------------|
D|----2-1-2-----2-1-2-2s4----2-1--4-3-2---2-1-2-----------|
A|-----------------------0--------2-1-2-------------------|
E|0---------0---------------------------------------------|


E     E     A      A

        E
Does it move you  (woah oh oh oh)
E         (woah oh oh oh)

        A
The state I'm in  (woah oh oh oh)
A         (woah oh oh oh)

       C#m       B 
Does it move you  
A                E  
Oh the state I'm in


Verse:

E                  C#m
Whisper discreetly
Am  E           C#m Am
To me 

E                       C#m
The years don't see me (?)
Am    E         C#m   Am
Come clean (?)


G#m           E
I just can go anywhere when I 
G#m           E
h-ow-am-a (?) heart    and I
G#m           A
I just can't tell    



Chorus:

e|--------------------------------------------------------|
B|--------------------------------------------------------|
G|--1---------1------------1------4-3-2--1----------------|
D|----2-1-2-----2-1-2-2s4----2-1--4-3-2---2-1-2-----------|
A|-----------------------0--------2-1-2-------------------|
E|0---------0---------------------------------------------|

E     E     A      A

        E
Does it move you  (woah oh oh oh)
E         (woah oh oh oh)

        A
The state I'm in  (woah oh oh oh)
A         (woah oh oh oh)

       C#m       B 
Does it move you  
A                E  
Oh the state I'm in



Breakdown / Solo bit:

I am not going to tab the solo, because it doesn't repeat, it's hard to grasp, and if you are 
playing chords with the track then you don't really want to start soloing... 
I can get some parts, but I will just skip it, haha.


After that is the verse:

G#m           E
I just can go anywhere when I 
G#m           E
h-ow-am-a (?) heart    and I
G#m           A
I just can't tell    



Chorus:

e|--------------------------------------------------------|
B|--------------------------------------------------------|
G|--1---------1------------1------4-3-2--1----------------|
D|----2-1-2-----2-1-2-2s4----2-1--4-3-2---2-1-2-----------|
A|-----------------------0--------2-1-2-------------------|
E|0---------0---------------------------------------------|

E     E     A      A

        E                           -----
Does it move you  (woah oh oh oh)       |
E         (woah oh oh oh)               |
                                        |   X2
        A                               |
The state I'm in  (woah oh oh oh)       |
A         (woah oh oh oh)           -----


       C#m       B 
Does it move you  
A                E  
Oh the state I'm in


*Fade out on E*



*************
My first tab, so don't be too harsh, haha.
Please comment if you want something changed.
*************
Suggest correction
Give kudos to tab author, rate the tab!
1 2 3 4 5
comments
print report bad tab
3 comments total.
0 reply
Henny Rocks 31 Feb 01, 2012 05:48 PM

Sounds great, maybe my fav from the album.

Wanna add the lead to this:


e|--------------------------------------------------------|
B|--------------------------------------------------------|
G|--1---------1------------1------4-3-2--1----------------|
D|----2-1-2-----2-1-2-2s4----2-1--4-3-2---2-1-2-----------|
A|-----------------------0--------2-1-2-------------------|
E|0---------0---------------------------------------------|


Would be sweet if someone wants to have a go at doing the solo, I really don't have time.

0 reply
waddup18 16 Jul 22, 2013 01:01 PM

That's good, but I think the first bar is different from the rest.

e|--------------------------------------------------------|
B|--------------------------------------------------------|
G|--1---------1------------1------4-3-2--1----------------|
D|----2-1-------2-1-2-2s4----2-1--4-3-2---2-1-2-----------|
A|--------2--------------0--------2-1-2-------------------|
E|0---------0---------------------------------------------|

Only a slight change, but I think it sounds right. Good job, in tabbing that, man.

0 reply
nmeben 20 Feb 03, 2012 01:12 PM

Yeah, cool, cheers :D

guest
You may want to rate the tab now too:
select rating
Wanna post a correction for this tab? Suggest correction