Oops, an error
Loading. Please wait.

Night Driving Chords

8,969 views 3 this week
2 commentsread comments
1 2 3 4 5
excellent!
x 6
add to favorites
launch autoscroll
font size
0
reset
transpose
0
reset
display chords
guitar tuner
Autoscroll
slow
fast
+/-
esc
set tempo
stop
Help us to improve Ultimate-Guitar.com Take our survey!
×
Author
Difficulty
Capo
novice
1st fret
-------------------------------------------------------------------------------
                           NIGHTDRIVING - TRIBES
-------------------------------------------------------------------------------
Tabbed by: Adam H

Tuning: Standard - Capo 1st


CHORDS:

Bm -   x24432
A -    x02220
D -    xx0232
G -    320033


e|--2-----2-----0-----0-----2-----2-----0------------------------------------|
B|-----3-----3-----3-----3-----3-----3-----3-----0-----3---------------------|
G|---------------------------------------------------------------------------|
D|---------------------------------------------------------------------------|
A|---------------------------------------------------------------------------|
E|---------------------------------------------------------------------------|


VERSE 1:

Bm      A    D        G
 A last look keeps me out of trouble
Bm         A     D      G
 That last drink got me seeing double
Bm   A    D        G 
 Roadkill makes my guts wanna spill
Bm      A        D           G
 On the backseat now with my head hanging down


CHORUS:
D            Bm         A         D
 What use is god if you can't see him
D             Bm              A          G
 What use are friends if they don't want in
G        Bm             A         D
 Running around with my head in a spin
D            Bm         A     G
 What use is god if you never win


VERSE 2:

Bm     A  D         G
 Six A.M watch the sun come up by 
Bm   A   D        G
 Myself watch the headlights fly by
Bm   A    D        G
 Roadkill makes my guts wanna 
Bm            A        D           G        
 Spill on the backseat now with my head hanging down


CHORUS:
D            Bm         A         D
 What use is god if you can't see him
D             Bm              A          G
 What use are friends if they don't want in
G        Bm             A         D
 Running around with my head in a spin
D            Bm         A     G
 What use is god if you never win
Suggest correction
What's this?
You can suggest a correction to this tab. Community and Mods will review your correction and vote to approve or reject it.
comments
print report bad tab
2 comments total.
0 reply
_SkagTrendy_ 179 wrote on November 15 2011, 09:11 am

hey man I tabbed this a while ago (but it's categorized under unsigned bands!) and I tabbed the solo as well if you're interested, I think your version is easier to play as well tbh

0 reply
waddup18 69 wrote on September 4 2013, 08:56 am

I know this is only a string up from what you've done, but I think it sounds a little bit more accurate.

INTRO (no relation to capo):


e:-------------------------------------------------------------------|
B:--8---8---6---6---8---8---6----------------------------------------|
G:----8---8---8---8---8---8---8-5-8----------------------------------|
D:-------------------------------------------------------------------|
A:-------------------------------------------------------------------|
E:-------------------------------------------------------------------|

guest
You may want to rate the tab now too:
select rating
Please do not post tabs as comments. Select "correction" instead!