Oops, an error
Loading. Please wait.

Nightdriving Tab

1,132 views 1 this week
1 commentread comment
1 2 3 4 5
please rate
add to favorites
launch autoscroll
font size
0
reset
how to read this tab
guitar tuner
Tab Pro tools
  • play this tab
  • loop segment
  • change instrument
  • show fretboard
  • metronome
×
Best way to learn
"Nightdriving"
Autoscroll
slow
fast
+/-
esc
set tempo
stop
Contributor
Difficulty
tabbed by katie L



e|-------------------------------------------------------------------------|
b|--8-----8-----6-----6-----8-----8-----5-----3-----0-----3----------------|
g|----8-----8-----8-----8-----8-----8--------------------------------------|
d|-------------------------------------------------------------------------|
a|-------------------------------------------------------------------------|
e|-------------------------------------------------------------------------|
comments
We did not receive enough feedback on this tab! Please rate:
print report bad tab
1 2 3 4 5
1 comment total.
+2 reply
StupidZebra wrote on March 20 2013, 03:06 pm

The 5-3-0-3 part is very wrong. Should be

e|----------------------6----4----1----4-----------------------------------|
b|-------------------------------------------------------------------------|

e|----------------------6----4---------4-----------------------------------|
b|--------------------------------5----------------------------------------|

I want to post or [tab]
guest
You may want to rate the tab now too:
select rating
Please do not post tabs as comments. Select "correction" instead!