Oops, an error
Loading. Please wait.

Sangre, Valiosa Sangre Tab

28 views 3 this week
no commentswrite comment
1 2 3 4 5
3 more votes to show rating
add to favorites
×
Save as Personal and add changes to this tab that will be seen only by you. Learn more ›
×
You can save this tab as Personal to edit and correct it or add notes. All changes will be seen only by you. Learn more »
save as personal
new!
launch autoscroll
font size
0
reset
how to read this tab
guitar tuner
Autoscroll
slow
fast
+/-
esc
set tempo
stop
Dm            A           Dm         silencio         E
Nunca había junado tanta sangre enviciando el empedrado
A         Dm
tan sexy, tan morbo.

Dm A Dm  silencio
         Limá la chapa y rajá
Dm A Dm                       E
         porque esa lacre es tuya
A                Dm
y vale un mango más.


Solo 1

  Dm  A    Dm   A    Dm  A  Dm  A      E      A      Dm
|-----------------------------------(10)---------------|
|------------------------8/10--10^------9---5-5^---(3)~|
|---9-7-----9-7-7-9-9^-7-------------------------------|
|-7-------7--------------------------------------------|
|------------------------------------------------------|
|------------------------------------------------------|

Dm            A           Dm         silencio         E
Qué onda tan espeluznante tiene el orejudo con tu perversión
A         Dm
tan lúcida, tan sabia.


Dm A Dm  silencio
         Que pague Dios esa oferta

Dm A Dm  silencio                    E
         sacá el pan dulce o vas a morir
A                  Dm
y no te van a extrañar.


Solo 2

|------------------------------------------------------------------
|---5-6-8-10--8-6-----------3-1------3-1---------------------------
|-7---------------7--2-3-2------3-2------3-2-5-3-2-5-3-2-3-2-0-2-3-
|------------------------------------------------------------------
|------------------------------------------------------------------
|------------------------------------------------------------------

--------------------------|
--------------------------|
---------------------/7~~-|
-2--2^3-2-0-2--2-2^-------|
--------------------------|
--------------------------|


Dm            A           Dm         silencio         E
Nunca había visto tal ensaña festejada por su propio mártir
A         Dm
tan cándida, tan simple.

Dm A Dm  silencio
         O reaccionás o al Averno
Dm A Dm  silencio              E
         porque esa sangre es tuya
A              Dm
y vale un poco más.


Solo 2

|----------------------------------------------------8---------------|
|------------------6------6-6------6-8-6---------6-8^--8-6---8-8-(6)-|
|-----------5--5/7---7-7------7--7-------7---5-7-----------7---------|
|-----3-5/7----------------------------------------------------------|
|-3-5----------------------------------------------------------------|
|--------------------------------------------------------------------|

|-----------------------------------|
|-----------------------------------|
|-/9-9^--9-10-9-7-9-7-6-7-6-----7~~-|
|---------------------------(7)-----|
|-----------------------------------|
|-----------------------------------|


fin.
Suggest correction
Give kudos to tab author, rate the tab!
1 2 3 4 5
comments
print report bad tab
guest
Wanna post a correction for this tab? Suggest correction