Oops, an error
Loading. Please wait.

Sugar Tab

version 3
version 3

Whole song

Interactive

1,764 views 3 this week
no commentswrite comment
1 2 3 4 5
2 more votes to show rating
add to favorites
launch autoscroll
font size
0
reset
how to read this tab
guitar tuner
Autoscroll
slow
fast
+/-
esc
set tempo
stop
Help us to improve Ultimate-Guitar.com Take our survey!
×
Okay the whole song runs off the two chords Am and E so its really easy
 but the timing is a bit jumpy so practice it and this is my very first 
tab and im only 14 but its sounds alt better than other tabs people have
 made so enjoy =D ~ Roberto


  This here is the main tune played throughout the verses~
e|----------------------------------||
B|-----1----------------------------||
G|-----2---2---0h1---1-------0h2----||
D|---------2---0h2---2---2---0h2----|| Repeat as many times as necessary
A|---0---0---0-----------2-------0--||
E|-----------------0---0---0--------||

  Now this here is a slight variation played in the chorus ~ 
e|-----0----------------------------||
B|-------1-----1--------------------||
G|---------2------1---1-------0h2---||
D|-----------2----2---2---2---0h2---|| Repeat as many times as necessary
A|---0--------------------2---------||
E|----------------0-0---0---0-------||

   And that's it its really easy to play and its short as well =D
Suggest correction
Give kudos to tab author, rate the tab!
1 2 3 4 5
comments
print report bad tab
guest
You may want to rate the tab now too:
select rating
Wanna post a correction for this tab? Suggest correction