Oops, an error
Loading. Please wait.

Hell Is Round The Corner Bass

4,145 views 9 this week
no commentswrite comment
1 2 3 4 5
3 more votes to show rating
add to favorites
launch autoscroll
font size
0
reset
guitar tuner
×
Best way to learn
"Hell Is Round The Corner"
Autoscroll
slow
fast
+/-
esc
set tempo
stop
Artist - Tricky 
Song - Hell Is Round the Corner
Album - Maxinquaye (1995)


Q=60

 Bass

G|---------7--------5--|---------4-----------|
D|-0-------------------|---------------------|
A|-----------3---------|-2---------1------1--|
E|---------------------|---------------------|


 Synth

   1    2    3    4      
E|---------------------|---------------------|
B|---------------------|-10------------------|
G|----------------10---|---------------------|
D|-12------------------|---------------------|
A|---------------------|---------------------|
E|---------------------|---------------------|

G|---------7--------5--|---------4-----------|
D|-0-------------------|---------------------|
A|-----------3---------|-2---------1------1--|
E|---------------------|---------------------|
Suggest correction
Give kudos to tab author, rate the tab!
1 2 3 4 5
comments
print report bad tab
guest
You may want to rate the tab now too:
select rating
Wanna post a correction for this tab? Suggest correction