Oops, an error
Loading. Please wait.

Pool tab

by Tricot
2,236 views 42 this week
no commentswrite comment
1 2 3 4 5
x 3
add to favorites
×
Save as Personal and add changes to this tab that will be seen only by you. Learn more ›
×
You can save this tab as Personal to edit and correct it or add notes. All changes will be seen only by you. Learn more »
launch autoscroll
font size
0
reset
how to read this tab
guitar tuner
edit
Autoscroll
slow
fast
+/-
esc
set tempo
stop
Author
About this tab version
Chords are different and were pulled from both the music video and live performances. Was this info helpful? Yes No
[Intro]

Both Guitars
e|---------------------------------------------------------------------------|
B|-----------------------5-5-5-5-5-------------------------------------------|
G|--2-2-2-2--2---5-5-5---4-4-4-4-4-------------------------------------------|
D|--2-2-2-2--2---4-4-4---2-2-2-2-2-------------------------------------------|X4
A|---------------5-5-5---4-4-4-4-4-------------------------------------------|
E|--2-2-2-2--2---------------------------------------------------------------|

Both Guitars
e|---------------------------------------------------------------------------|
B|---------------------5-5-5-5-5------------------5-5-5-5--------------------|
G|--2-2-2-2--x-5-5-5-5-4-4-4-4-4--2-2-2--5-5-5-5--4-4-4-4--------------------|
D|--2-2-2-2--x-4-4-4-4-2-2-2-2-2--2-2-2--4-4-4-4--2-2-2-2--------------------|X2
A|-----------x-5-5-5-5-4-4-4-4-4---------5-5-5-5--4-4-4-4--------------------|
E|--2-2-2-2-----------------------2-2-2--------------------------------------|


[Verse]

Guitar 2
e|---------------------------------------------------------------------------|
B|-------0--------0--------5-------------------------------------------------|
G|-----2--------5--------4---------------------------------------------------|
D|---2--------4--------2-----------------------------------------------------|X8
A|----------5--------4-------------------------------------------------------|
E|-2-------------------------------------------------------------------------|

Guitar 2
e|----------------------------------------------------------------5*---------|
B|-------0--------0--------0--------5--------0--------0--------0--5*---------|
G|-----2--------2--------5--------4--------2--------2--------5---------------|
D|---2--------2--------4--------2--------2--------2--------4-----------------|
A|-------------------5--------4--------------------------5-------------------|
E|-2--------2--------------------------2--------2----------------------------|

Guitar 2
e|---------------------------------------------------------------------------|
B|-------0--------0--------5-------------------------------------------------|
G|-----2--------5--------4---------------------------------------------------|
D|---2--------4--------2-----------------------------------------------------|X4
A|----------5--------4-------------------------------------------------------|
E|-2-------------------------------------------------------------------------|

Guitar 2
e|---------------------------------------------------------------------------|
B|-------0--------0--------0-----------0-------7--7--7--7---x-x--5--5--5~----|
G|-----2--------5--------2---2-------4---4-----6--6--6--6---x-x--6--6--6~----|
D|---2--------4--------0-------0---3-------3---4--4--4--4---x-x--4--4--4~----|
A|----------5--------2-----------4-------------5--5--5--5---x-x--5--5--5~----|
E|-2-------------------------------------------------------------------------|


[Chorus]

Both Guitars
e|---------------------------------------------------------------------------|
B|-----5-----------5-----2---------------------------------------------------|
G|-----6-----2-----4-----2---------------------------------------------------|
D|-----4-----2-----3---------------------------------------------------------|X4
A|-----5-----------4-----2---------------------------------------------------|
E|-----------2---------------------------------------------------------------|

Guitar 1
e|----------------------------------------------------|----------------------|
B|-----5-----------5-----2-----5-----------5-----2----|--------5~------------|
G|-----6-----2-----4-----2-----6-----2-----4-----2----|--------6~------------|
D|-----4-----2-----3-----------4-----2-----3----------|(X2)----4~------------|
A|-----5-----------4-----2-----5-----------4-----2----|--------5~------------|
E|-----------2-----------------------2----------------|----------------------|

Guitar 2 
e|----------------------------------------------------|----------------------|
B|-----10----10----5-----2-----5-----10----------10---|--------10~-----------|
G|-----9-----9-----4-----2-----6-----9-----16----9----|--------9~------------|
D|-----------------3-----------4-----------14---------|(X2)------------------|
A|-----------------4-----2-----5-----------16----9----|----------------------|
E|-----10----10----------------------10---------------|--------10~-----------|


[Bridge 1]

Guitar 1
e|---------------------------------------------------------------------------|
B|----9---------------5-------5----------------------------------------------|
G|----9---------------4-------6------2---------------------------------------|
D|--------------------3-------4------2---------------------------------------|X2
A|----9---------------4-------5----------------------------------------------|
E|-----------------------------------2---------------------------------------|

Guitar 2
e|---------------------------------------------------------------------------|
B|----9--10--10--9----14--12--10--9--9--10-----------------------------------|
G|----9--9---9---9----14--13--11--9--9--9---9h11p9---------------------------|
D|------------------------------------------9h11p9---------------------------|X2
A|---------------------------------------------------------------------------|
E|---------------------------------------------------------------------------|

Guitar 1
e|---------------------------------------------------------------------------|
B|----9---------------5-------5------2---------------------------------------|
G|----9---------------4-------6------2---------------------------------------|
D|--------------------3-------4----------------------------------------------|X2
A|----9---------------4-------5------2---------------------------------------|
E|---------------------------------------------------------------------------|

Guitar 2
e|---------------------------------------------------------------------------|
B|----9--10--10--9----14--12--10--9--9--10-----------------------------------|
G|----9--9---9---9----14--13--11--9--9--9---9\-------------------------------|
D|------------------------------------------9\-------------------------------|X2
A|---------------------------------------------------------------------------|
E|---------------------------------------------------------------------------|


[Verse 2]

Guitar 2
e|---------------------------------------------------------------------------|
B|-------0--------0--------5-------------------------------------------------|
G|-----2--------5--------4---------------------------------------------------|
D|---2--------4--------2-----------------------------------------------------|X6
A|----------5--------4-------------------------------------------------------|
E|-2-------------------------------------------------------------------------|

Guitar 1
e|---------------------------------------------------------------------------|
B|-5~----------------5~-------5~-------2~------------------------------------|
G|-6~----------------4~-------6~-------2~------------------------------------|
D|-4~------------------------------------------------------------------------|
A|-------------------4~-------5~-------2~------------------------------------|
E|---------------------------------------------------------------------------|

Guitar 2
e|---------------------------------------------------------------------------|
B|-------0--------0--------5--------0--------0--------5----------------------|
G|-----2--------5--------4--------2--------5--------4------------------------|
D|---2--------4--------2--------2--------4--------2--------------------------|
A|----------5--------4-----------------5--------4----------------------------|
E|-2--------------------------2----------------------------------------------|

Guitar 1
e|---------------------------------------------------------------------------|
B|-5~----------------5~-------5~-------2~------------------------------------|
G|-6~----------------4~-------6~-------2~------------------------------------|
D|-4~------------------------------------------------------------------------|
A|-------------------4~-------5~-------2~------------------------------------|
E|---------------------------------------------------------------------------|

Guitar 2
e|---------------------------------------------------------------------------|
B|----------------------------------0--------0--------5----------------------|
G|--------------------------------2--------5--------4------------------------|
D|------------------------------2--------4--------2--------------------------|
A|-------------------------------------5--------4----------------------------|
E|----------------------------2----------------------------------------------|

Guitar 1
e|---------------------------------------------------------------------------|
B|-5~----------------5~-------5~-------2~------------------------------------|
G|-6~----------------4~-------6~-------2~------------------------------------|
D|-4~------------------------------------------------------------------------|
A|-------------------4~-------5~-------2~------------------------------------|
E|---------------------------------------------------------------------------|

Guitar 2
e|---------------------------------------------------------------------------|
B|-------0--------0--------5-----------------0--------5----------------------|
G|-----2--------5--------4-----------------5--------4------------------------|
D|---2--------4--------2-----------------4--------2--------------------------|
A|----------5--------4-----------------5--------4----------------------------|
E|-2-------------------------------------------------------------------------|

Guitar 2
e|---------------------------------------------------------------------------|
B|-------0--------0----------------------------------------------------------|
G|-----2--------5------------------------------------------------------------|
D|---2--------4--------------------------------------------------------------|
A|----------5----------------------------------------------------------------|
E|-2-------------------------------------------------------------------------|


[Bridge 2]

Guitar 1
e|----------------|----------------------------------------------------------|
B|----5---5-------|------5-5-5-5---5-5-5-5----5-5-5-5-5----5--5--5~----------|
G|----6---4---2---|------6-6-6-6---6-6-6-6----6-6-6-6-6----6--6--6~----------|
D|----4---3---2---|(X4)--4-4-4-4---4-4-4-4----4-4-4-4-4----4--4--4~----------|
A|----5---4-------|------5-5-5-5---5-5-5-5----5-5-5-5-5----5--5--5~----------|
E|------------2---|----------------------------------------------------------|
   
Guitar 2
e|----------------|----------------------------------------------------------|
B|----5---9--10---|------5-5-5-5---5-5-5-5----9-9-9-9-9----10-10-10~---------|
G|----6---9--9----|------6-6-6-6---6-6-6-6----9-9-9-9-9----9--9--9~----------|
D|----4-----------|(X4)--4-4-4-4---4-4-4-4-----------------------------------|
A|----5---8--9----|------5-5-5-5---5-5-5-5----9-9-9-9-9----9--9--9~----------|
E|----------------|----------------------------------------------------------|


[Chorus]

Both Guitars
e|---------------------------------------------------------------------------|
B|-----5-----------5-----2---------------------------------------------------|
G|-----6-----2-----4-----2---------------------------------------------------|
D|-----4-----2-----3---------------------------------------------------------|X4
A|-----5-----------4-----2---------------------------------------------------|
E|-----------2---------------------------------------------------------------|
 
Guitar 1
e|----------------------------------------------------|----------------------|
B|-----5-----------5-----2-----5-----------5-----2----|--------5---5---------|
G|-----6-----2-----4-----2-----6-----2-----4-----2----|--------6---4---2-----|
D|-----4-----2-----3-----------4-----2-----3----------|(X2)----4---3---2-----|(X3)
A|-----5-----------4-----2-----5-----------4-----2----|--------5---4---------|
E|-----------2-----------------------2----------------|----------------2-----|

Guitar 2 
e|----------------------------------------------------|----------------------|
B|-----10----10----5-----2-----5-----10----------10---|--------5---9---10----|
G|-----9-----9-----4-----2-----6-----9-----16----9----|--------6---9---9-----|
D|-----------------3-----------4-----------14---------|(X2)----4-------------|(X3)
A|-----------------4-----2-----5-----------16----9----|--------5---8---9-----|
E|-----10----10----------------------10---------------|----------------------|


[Outro]

Guitar 1
e|---------------------------------------------------------------------------|
B|----5----5----5----5----5----5---------------------------------------------|
G|----6----6----6----6----4----4----2----2-----------------------------------|
D|----------------------------------2----2-----------------------------------|
A|----5----5----5----5----4----4---------------------------------------------|
E|----------------------------------2----2-----------------------------------|

Guitar 2
e|---------------------------------------------------------------------------|
B|------10---10---10---10-------------10---10--------------------------------|
G|------9----9----9----9----16---16---9----9---------------------------------|
D|--------------------------14---14------------------------------------------|
A|--------------------------16---16---9----9---------------------------------|
E|------10---10---10---10----------------------------------------------------|

Guitar 1
e|---------------------------------------------------------------------------|
B|----5----5----5----5----5----5---------------------------------------------|
G|----6----6----6----6----4----4----2----2-----------------------------------|
D|----------------------------------2----2-----------------------------------|
A|----5----5----5----5----4----4---------------------------------------------|
E|----------------------------------2----2-----------------------------------|

Guitar 2
e|---------------------------------------------------------------------------|
B|------10---10---10---10-------------10---10--------------------------------|
G|------9----9----9----9----16---19---9----9---------------------------------|
D|--------------------------14---14------------------------------------------|
A|--------------------------16---16---9----9---------------------------------|
E|------10---10---10---10----------------------------------------------------|

Guitar 1
e|---------------------------------------------------------------------------|
B|----5----5----5----5----5----5---------------------------------------------|
G|----6----6----6----6----4----4----2----2-----------------------------------|
D|----------------------------------2----2-----------------------------------|
A|----5----5----5----5----4----4---------------------------------------------|
E|----------------------------------2----2-----------------------------------|

Guitar 2
e|---------------------------------------------------------------------------|
B|------10---10---10---10-------------10---10--------------------------------|
G|------9----9----9----9----16---16---9----9---------------------------------|
D|--------------------------14---14------------------------------------------|
A|--------------------------16---16---9----9---------------------------------|
E|------10---10---10---10----------------------------------------------------|

Guitar 1
e|---------------------------------------------------------------------------|
B|----5----5----5----5----5----5---------------------------------------------|
G|----6----6----6----6----4----4----2----2-----------------------------------|
D|----------------------------------2----2-----------------------------------|
A|----5----5----5----5----4----4---------------------------------------------|
E|----------------------------------2----2-----------------------------------|

Guitar 2
e|---------------------------------------------------------------------------|
B|------10---10---10---10-------------10-------------------------------------|
G|------9----9----9----9----16---19---9--------------------------------------|
D|--------------------------14---14------------------------------------------|
A|--------------------------16---16---9--------------------------------------|
E|------10---10---10---10----------------------------------------------------|



************************************

| x   Dead note
| *   Natural harmonic
| h   Hammer-on
| p   Pull-off
| \   Slide down
| ~   Hold

************************************

            
            
Suggest correction
Creating personal tab
Creating personal tab
You can edit any tab online and save it as your Personal.

You can edit, replace or remove any tab part or add personal notes – all changes will be seen only by you.

Personal tabs can be accessed anytime from any device, even offline.
Learn more »
Give kudos to tab author, rate the tab!
1 2 3 4 5
comments
print report bad tab
guest
You may want to rate the tab now too:
select rating
Wanna post a correction for this tab? Suggest correction