Oops, an error
Loading. Please wait.

Ni Chicha Ni Pescado Chords

version 2
version 2

Whole song

7 views 1 this week
no commentswrite comment
1 2 3 4 5
3 more votes to show rating
add to favorites
launch autoscroll
font size
0
reset
transpose
0
reset
display chords
guitar tuner
Autoscroll
slow
fast
+/-
esc
set tempo
stop
Help us to improve Ultimate-Guitar.com Take our survey!
×
INTRO

   
e --------------------------------------------------------I
B -7/8~-7~--8-7-10-8-7-8~-7~----7/8~-7~--8-7-10-8-7-7-5~--I
G --------------------------------------------------------I
D --------------------------------------------------------I
A --------------------------------------------------------I
E --------------------------------------------------------I

e ------------------------------------------------I
B -5/7~-7~--7-5-8-7-5-5-3~---3/5~-3~--7-5-3-3-2~--I
G ------------------------------------------------I
D ------------------------------------------------I
A ------------------------------------------------I
E ------------------------------------------------I

e ---------------------------I
B -2/3~-2~--5-3-2-0----------I
G -------------------3-4-----I
D ---------------------------I
A ---------------------------I
E ---------------------------I


Bm
El mundo y sus mentiras la verdad y la fantasia
                              Em
el odio la ironia incluso el hambre de etiopia
                             Bm
el hombre sus miserias falto de las cosas buenas
F#            Bm
nada me importa ya
     Em                        Bm
mi hambre mis miserias mi falta de cosas buenas 
F#            Bm
nada me importa ya


Bm
Que el lunes es un asco y el viernes pura alegria
                               Em
que hay santos y demonios y quien festeja sus dias
                       Bm
cargantes y cargados ilustres o chiflados 
F#            Bm
nada me importa ya
Em                            Bm
mis cargas mis cargados ser ilustre o ser chiflado
F#            Bm
nada me importa ya


D    Em         Bm
Tengo los dias destrozados 
D                        Em              Bm
me duele que te hayas marchado buscando otro sol
D     Em         Bm
y ando ni chicha ni pescado
Em                     F#          Bm   Bm-A#m-Bm
en la piel de un abandonado, abandonado 


D    Em         Bm
Tengo los dias destrozados 
D                        Em             Bm
me duele que te hayas largado buscando otro sol
D     Em         Bm
y ando ni chicha ni pescado
 Em                     F# 
/en la piel de un abandonado/ x3
      Bm          F#   Bm   F#-Bm
abandonadoooooooooooooooo

Espero que les guste, cualquier sugerencia escriban a mi mail 
loko18241@ o un mensaje a mi celular al numero
099843602 !Viva la musica ECUATORIANA!
Suggest correction
Give kudos to tab author, rate the tab!
1 2 3 4 5
comments
print report bad tab
guest
You may want to rate the tab now too:
select rating
Wanna post a correction for this tab? Suggest correction