Oops, an error
Loading. Please wait.

Penas Tab

version 1
version 1

Whole song

7 views 1 this week
no commentswrite comment
1 2 3 4 5
3 more votes to show rating
add to favorites
launch autoscroll
font size
0
reset
how to read this tab
guitar tuner
Autoscroll
slow
fast
+/-
esc
set tempo
stop
Help us to improve Ultimate-Guitar.com Take our survey!
×
Penas
este es el Intro y el intermedio esta 100% correcto practiquenlo

e |----------------------------------------------------------------|
B |-3-7-5-7--3-7-5--2-7-5-7--2-7-5---7-5-7--7-5---7-5-7--7-5-------|
G |--------------------------------4-------4----3-------3----------|
D |----------------------------------------------------------------|
A |----------------------------------------------------------------|
E |----------------------------------------------------------------|

e |----------------------------------------------------------------|
B |-7-14/15-14-12--7-14/15-14-12--7-7-7h8p7------------------------|
G |----------------------------------------------------------------|
D |----------------------------------------------------------------|
A |----------------------------------------------------------------|
E |----------------------------------------------------------------|

e |----------------------------------------------------------------|
B |-5-10/12-10-8--5-10/12-10-8-5-7/11-7-0--------------------------|
G |----------------------------------------------------------------|
D |----------------------------------------------------------------|
A |----------------------------------------------------------------|
E |----------------------------------------------------------------|
Suggest correction
Give kudos to tab author, rate the tab!
1 2 3 4 5
comments
print report bad tab
guest
You may want to rate the tab now too:
select rating
Wanna post a correction for this tab? Suggest correction