Oops, an error
Loading. Please wait.

Penas Tab

version 2
version 2

Whole song

4 views 1 this week
no commentswrite comment
1 2 3 4 5
3 more votes to show rating
add to favorites
launch autoscroll
font size
0
reset
how to read this tab
guitar tuner
Autoscroll
slow
fast
+/-
esc
set tempo
stop
Help us to improve Ultimate-Guitar.com Take our survey!
×
ESTA ES MI SEGUNDA TRANSCRIPCIÓN, ESPERO QUE LES GUSTE

LAS NOTAS SE ESCUCHAN BIEN.

UN SALUDO PARA LOS MUCHACHOS DEL GRUPO DEL LICEO GRANCOLOMBIANO.
CARLOS LIGUA, PAUL SORIANO, WILLIAM ROSADO, WELLINGTON MENDOZA,
JACOB REYES,LEONELA PALOMINO, ANGEL VALENCIA, JUAN QUIÑONEZ,
MAURICIO PORTUGAL, Y NUESTRO DIRECTOR RODOLFO SUQUINAGUA.


EL GRUPO DEL LICEO GRANCOLOMBIANO EL MEJOR DE GUAYAQUIL


e |----------------------------------------------------------------------|
B |---7-5-7---7-5-7---7-5-7---7-5-7---7-5-7----7-5-7---7-5-7---7-5-------|
G |-7-------7-------6-------6-------4--------4-------3-------3-----------|
D |----------------------------------------------------------------------|
A |----------------------------------------------------------------------|
E |----------------------------------------------------------------------|

e |---10-9-7------10-9-7-------------------------------------------------|
B |-7----------7-----------7-7h8h7---12-10-8---12-10-8---7-7h8h7---------|
G |----------------------7---------9---------9---------7-----------------|
D |----------------------------------------------------------------------|
A |----------------------------------------------------------------------|
E |----------------------------------------------------------------------|


SIm                          FA#
penas es lo que siento en mi alma
                          SOL
por que esta mujer no entiende
                       FA#
que me hace perder la calma


SIm                        FA#
mírame que tu me tienes cansado
                      SOL
te llevo por todas partes
                  FA#
y tu nunca eres feliz


SIm                          FA#
mátame mi amor si no eres conforme
                     SOL
si yo ha ti te lo di todo
                     FA#
que mas quieres tu de mi


SOL                                   SIm
QUIERA DIOS QUE ENCUENTRES OTRO EN TU VIDA
                FA#                         simSI7
QUE TE DE TODO EL CARIÑO QUE QUIZAS YO NO TE DI.
SOL                                     SIm
QUIERA DIOS QUE ENCUENTRES OTRO EN TU VIDA
                 FA#                   SIm
QUE TE DE TODO EL CARIÑO QUE QUIZAS YO NO TE DI.


e |--------------------------------------------------------------------|
B |---7-5-7----7-5-7---7-5-7----7-5-7---7-5-7--7-5-7--7-5-7--7-5-------|
G |-7-------7--------6--------6-------4-------4------3------3----------|
D |--------------------------------------------------------------------|
A |--------------------------------------------------------------------|
E |--------------------------------------------------------------------|

e |---10-9-7------10-9-7-----------------------------------------------|
B |-7----------7-----------7-7h8h7---12-10-8---12-10-8---7-7h8h7-------|
G |----------------------7---------9---------9---------7---------------|
D |--------------------------------------------------------------------|
A |--------------------------------------------------------------------|
E |--------------------------------------------------------------------|


SIm                        FA#
mírame que tu me tienes cansado
                      SOL
te llevo por todas partes
                  FA#
y tu nunca eres feliz


SIm                          FA#
mátame mi amor si no eres conforme
                     SOL
si yo ha ti te lo di todo
                     FA#
que mas quieres tu de mi


SOL                                   SIm
QUIERA DIOS QUE ENCUENTRES OTRO EN TU VIDA
                FA#                         simSI7
QUE TE DE TODO EL CARIÑO QUE QUIZAS YO NO TE DI.
SOL                                     SIm
QUIERA DIOS QUE ENCUENTRES OTRO EN TU VIDA
                 FA#                   SIm
QUE TE DE TODO EL CARIÑO QUE QUIZAS YO NO TE DI.


SOL                                   SIm
QUIERA DIOS QUE ENCUENTRES OTRO EN TU VIDA
                FA#                         simSI7
QUE TE DE TODO EL CARIÑO QUE QUIZAS YO NO TE DI.
SOL                                     SIm
QUIERA DIOS QUE ENCUENTRES OTRO EN TU VIDA
                 FA#                   SIm
QUE TE DE TODO EL CARIÑO QUE QUIZAS YO NO TE DI.


CUALQUIER SUGERENCIA HAGANLA SABER A MI CORREO.

GRACIAS...............


* * * * * * * * * * T.A.M.N. * * * * * * * * * *
Suggest correction
Give kudos to tab author, rate the tab!
1 2 3 4 5
comments
print report bad tab
guest
You may want to rate the tab now too:
select rating
Wanna post a correction for this tab? Suggest correction