Oops, an error
Loading. Please wait.

Que Lindo Que Llego Navidad Tab

11 views 1 this week
no commentswrite comment
1 2 3 4 5
3 more votes to show rating
add to favorites
launch autoscroll
font size
0
reset
how to read this tab
guitar tuner
Autoscroll
slow
fast
+/-
esc
set tempo
stop
Help us to improve Ultimate-Guitar.com Take our survey!
×
Hola, esta es una corrección a la anterior transcripción?
 es que por ahí el intro no me cuadraba y una nota estaba mal,
y bueno a propósito que ya estamos a la vuelta de otra navidad que mejor
que publicar esta canción..
 y bueno si hay alguna duda avísenme a mi e mail (fercho540@
Topen y suerte?

INTRO

E -0----------------0---------------0-- -----------0--|
B -0--0-------------0-0-------------0-0------------0--|
G -1----1-----------1---1-----------1---1----------1--|
D -2------2-0-------2-----2-0-------2-----2-0------2--|
A -2----------4-2-0-2---------4-2-0-2--------4-2-0-2--|
E -0----------------0---------------0--------------0--|


E
La ciudad se viste de colores
y las calles de luces y de olores
C#m
y los locos que apresuran el paso
llevan sus regalos bajo el brazo
F#m
y no importa si es que esta vida apesta
si a las largas todos vamos de fiesta


 D             A         E
Qué Lindo que llego navidad?  x4

guitarra
E -0----------------0---------------
B -0--0-------------0-0-------------
G -1----1-----------1---1-----------
D -2------2-0-------2-----2-0-------
A -2----------4-2-0-2---------4-2-0-
E -0----------------0---------------


E
Y la gente corre como ganado
y los pavos lloran en los mercados
C#m
la TV hace su agosto en diciembre
pues la publicidad a gritos vende
F#m
toditito a precio rebajado
y lo puedes pagar el próximo año


  D             A         E
/ Que Lindo que llego navidad / x4


Christmas BELL
E ------------------------------------------------------|
B ------------------------------------------------------|
G -1-1-1--1-1-1--1-4-----1---1-1-1--1-1-1--1-4-----1----|
D -------------------2-4-----------------------2-4------|
A ------------------------------------------------------|
E ------------------------------------------------------|

E -----------------------------------------------------|
B -----------------------------------------------------|
G -2-2-2--2-2-2--2-6-----2---4-4-4--4-4-4---8-6-4-6-4--|
D -------------------4-6-------------------------------|
A -----------------------------------------------------|
E -----------------------------------------------------|
Ah, ahí también va el jojojo? pero ya saben?

E
Seamos todos mas buenos y mejores
y llenemos de amor los corazones
C#m
aunque no lleguemos ni a febrero
que por la nariz echemos fuego
F#m
pero bueno al menos fue un pretexto
para intentar quedar bien con el resto


 D             A         E
Qué Lindo que llego navidad? (4 veces...)

(Y al final)
D             A         E              E
Qué Lindo que llego navidad  (Amor? amor? amor... amor)

D             A         E              E
Qué Lindo que llego navidad? (En una caja para mi corazón)

D             A         E            E
Qué Lindo que llego navidad? (Compren todos conmigo...)

D             A         E
Que Lindo que llego navidad?  Llegaste navidad?
Suggest correction
Give kudos to tab author, rate the tab!
1 2 3 4 5
comments
print report bad tab
guest
You may want to rate the tab now too:
select rating
Wanna post a correction for this tab? Suggest correction