Oops, an error
Loading. Please wait.

Trigun Theme Tab

version 1
version 1

Whole song

Interactive

by Trigun
85,776 views 141 this week
7 commentsread comments
1 2 3 4 5
x 21
add to favorites
×
Save as Personal and add changes to this tab that will be seen only by you. Learn more ›
×
You can save this tab as Personal to edit and correct it or add notes. All changes will be seen only by you. Learn more »
save as personal
new!
launch autoscroll
font size
0
reset
how to read this tab
guitar tuner
Autoscroll
slow
fast
+/-
esc
set tempo
stop
[Part 1]

e|---------------------------------------------------------|
B|---------------------------------------------------------|
G|--------------------------------------------------7-7----|
D|----------------^-------------------------^---^---7-7----|
A|----------------3-----------3-------------3---3---5-5----|
E|--0-3-4-5-3-4-5---5-3-2-3-5---3-4-5-3-4-5---5---5--------|


e|-------------------------------------------------------------|
B|-------------------------------------------------------------|
G|-------------------------------------------------------------|
D|----------------^-------------------------^---^--------------|
A|----------------3-----------3-------------3---3---(3)--------|
E|--0-3-4-5-3-4-5---5-3-2-3-5---3-4-5-3-4-5---5---5--8--3-4-5--|


e|---------------------------------------------------------|
B|---------------------------------------------------------|
G|--------------------------------------------------7-7----|
D|----------------^-------------------------^---^---7-7----|
A|----------------3-----------3-------------3---3---5-5----|
E|--0-3-4-5-3-4-5---5-3-2-3-5---3-4-5-3-4-5---5---5--------|

e|---------------------------------------------------------|
B|---------------------------------------------------------|
G|--------------------------------------------------7-7----|
D|----------------^-------------------------^---^---7-7----|
A|----------------3-----------3-------------3---3---5-5----|
E|--0-3-4-5-3-4-5---5-3-2-3-5---3-4-5-3-4-5---5---5--------|


e|----------------------------------------------------------------------|
B|----------------------------------------------------------------------|
G|----------------------------------------------------------------------|
D|----------------^-------------------------^---^-----------------------|
A|----------------3-----------3-------------3---3---(3)-----------------|
E|--0-3-4-5-3-4-5---5-3-2-3-5---3-4-5-3-4-5---5---5--8--3-4-5-3p5p3p5---|


[Bridge 1]

  G5 A5 D5  D5 C5  A

e|------------------0-------------^-----^-----------------------|
B|------------------2-------------^-----^------------------^----|
G|--------7---7--5--2---------7---7-5---7-5---------(9)(7)(5)---|
D|--5--7--7---7--5--2---5--7--7-------7-----7-5-6-7--9--7--5----|
A|--5--7--5---5--3--0---5--7--5----------------------7--5--3----|
E|--3--5----------------3--5------------------------------------|


[Part 2]

  (God damnit, who cares about the chord notes?)

e|-------------------------------------------------------------|
B|-------------------------------------------------------------|
G|--7--5-6-7--5-6-----------------7--5-6-7--5-6----------------|
D|--7--5-6-7--5-6---3-------------7--5-6-7--5-6-7-6--7-6-------|
A|--5--3-4-5--3-4-5---5-3-5-0-3-5-5--3-4-5--3-4-5-4--5-4-------|
E|-------------------------------------------------------------|

e|-------------------------------------------------------------|
B|-------------------------------------------------------------|
G|--7--5-6-7--5-6-----------------7--5-6-7--5-6----------------|
D|--7--5-6-7--5-6---3-------------7--5-6-7--5-6-7-6--7-6-------|
A|--5--3-4-5--3-4-5---5-3-5-0-3-5-5--3-4-5--3-4-5-4--5-4-------|
E|-------------------------------------------------------------|

e|-------------------------------------------------------------|
B|-------------------------------------------------------------|
G|--7--5-6-7--5-6-----------------7--5-6-7--5-6----------------|
D|--7--5-6-7--5-6---3-------------7--5-6-7--5-6-7-6--7-6-7-4---|
A|--5--3-4-5--3-4-5---5-3-5-0-3-5-5--3-4-5--3-4-5-4--5-4-5-6---|
E|-------------------------------------------------------------|

e|----------------------------------^^---------------------------------------|
B|----------------------------------15--12-----------------------------------|
G|-----------------------------------------14-15-16--14-11-14-11-------------|
D|--9--7-8-9--7-8------------------------------------------------14-12-------|
A|--7--5-6-7--5-6-7-5--------5-6-7-------------------------------------14----|
E|--------------------7-0--7-------------------------------------------------|

e|-----------------------------|
B|----^^-----^^-----^^---------|
G|----^^-----^^-----^^---------|
D|-14-12--14-12--14-12--(14)---|
A|-----------------------------|
E|-----------------------------|


[Part 3]

e|---------------------------------------------------------|
B|---------------------------------------------------------|
G|--------------------------------------------------7-7----|
D|----------------^-------------------------^---^---7-7----|
A|----------------3-----------3-------------3---3---5-5----|
E|--0-3-4-5-3-4-5---5-3-2-3-5---3-4-5-3-4-5---5---5--------|

e|-------------------------------------------------------------|
B|-------------------------------------------------------------|
G|-------------------------------------------------------------|
D|----------------^-------------------------^---^--------------|
A|----------------3-----------3-------------3---3---(3)--------|
E|--0-3-4-5-3-4-5---5-3-2-3-5---3-4-5-3-4-5---5---5--8--3-4-5--|

e|---------------------------------------------------------|
B|---------------------------------------------------------|
G|--------------------------------------------------7-7----|
D|----------------^-------------------------^---^---7-7----|
A|----------------3-----------3-------------3---3---5-5----|
E|--0-3-4-5-3-4-5---5-3-2-3-5---3-4-5-3-4-5---5---5--------|

e|----------------------------------------------------------------------|
B|----------------------------------------------------------------------|
G|----------------------------------------------------------------------|
D|----------------^-------------------------^---^-----------------------|
A|----------------3-----------3-------------3---3---(3)-----------------|
E|--0-3-4-5-3-4-5---5-3-2-3-5---3-4-5-3-4-5---5---5--8--3-4-5-3p5p3p5---|

e|------------------0-------------^-----^-------------------------------|
B|------------------2-------------^-----^------------------^------------|
G|--------7---7--5--2---------7---7-5---7-5---------(9)(7)(5)-----------|
D|--5--7--7---7--5--2---5--7--7-------7-----7-5-6-7--9--7--5---7\-------|
A|--5--7--5---5--3--0---5--7--5----------------------7--5--3---7\-------|
E|--3--5----------------3--5-----------------------------------5\-------|


OK 7-STRING WIELDERS . . . instead of this:

e|-------------------------------------------------------------|
B|-------------------------------------------------------------|
G|--7--5-6-7--5-6-----------------7--5-6-7--5-6----------------|
D|--7--5-6-7--5-6---3-------------7--5-6-7--5-6-7-6--7-6-------|
A|--5--3-4-5--3-4-5---5-3-5-0-3-5-5--3-4-5--3-4-5-4--5-4-------|
E|-------------------------------------------------------------|

do this . . .

E|-----------------------------------------------------------|
B|-----------------------------------------------------------|
G|--7--5-6-7--5-6---------------7--5-6-7--5-6----------------|
D|--7--5-6-7--5-6---------------7--5-6-7--5-6-7-6--7-6-------|
A|--5--3-4-5--3-4-5-3-------3-4-5--3-4-5--3-4-5-4--5-4-------|
E|--------------------5---5----------------------------------|
B|----------------------3------------------------------------|


************************************

| (n)  Ghost note
| p    Pull-off
| \    Slide down

************************************
Suggest correction
comments
print report bad tab
7 comments total. Showing first comments.
0 reply
Raistlin27 20 Dec 06, 2004 07:00 PM

I Love You, Thanks 60 double billion.

0 reply
ChildOfBodom666 40 Apr 20, 2006 08:43 PM

You could just tune into D... Drop D isn't the only answer... Good tab, but you should probably tune to D and do a little extra work, since bending is much easier higher on the neck than near the nut, especially if your in a high tuning like E... I'll redo this tab in D if anyone wants me too

0 reply
xFret27 71 Jun 01, 2008 06:14 PM

damn i just heard this song again i wanted to ear it out. haha damn mine was really close to yours. my intro was more like;

E-------------------------------------------------------------|
B-------------------------------------------------------------|
G----------------------------------------------------7-7------|
D----------------------------------------------------7-7------|
A-------------------------3---------------3---3---5-5------|
E--333-3h5-3h5-----5-3-2-3-5---5-3-4-5-3-4-5---5---5----------|
PM ...
- Pinch Harmonic
h - Hammer On


and instead, for the bridge I do

E--------------------------------|
B--------------------------------|
G--------7---7--5------------7---|
D--5--7--7---7--5--7---5--7--7---|
A--5--7--5---5--3--7---5--7--5---|
E--3--5------------5---3--5------|


the power chord on the 6th string is the same as the
|-|
|-|
|2|
|2|
|0|
|-|

guest
Wanna post a correction for this tab? Suggest correction