Oops, an error
Loading. Please wait.

Sigamos Pecando Tab

18 views 1 this week
no commentswrite comment
1 2 3 4 5
3 more votes to show rating
add to favorites
launch autoscroll
font size
0
reset
how to read this tab
guitar tuner
Autoscroll
slow
fast
+/-
esc
set tempo
stop
Help us to improve Ultimate-Guitar.com Take our survey!
×
La tab la se la toca al momento del recitado de la canción...

E-----------2-2-|-----------3-3-|-------9-7-7-6--|-----------------
B---2-3-2-------|---2-3-2-------|---7-8----------|-----------------
G--4------4-----|-4-------4-----|-9--------------|-7-8-7-7-10-8-7--
D---------------|---------------|----------------|-----------------
A---------------|---------------|----------------|-----------------
E---------------|---------------|----------------|-----------------

E-----------2-2-|-----------3-3-|-------9-7-10-7-|---------------6-7-9-7-6-7
B----2-3-2------|---2-3-2-------|---7-8----------|---7-8-7---8-7-----------
G--4------4-----|-4-------4-----|-9--------------|-9-------9---------------
D---------------|---------------|----------------|-------------------------
A---------------|---------------|----------------|-------------------------
E---------------|---------------|----------------|-------------------------


                Bm
Olvida aquel instante
             Em
en que con tanto miedo
           F#7
te dije temeroso
                  Bm
que había que renunciar.


Nuestro amor fue grande
                  Em
tan grande y tormentoso
                       Bm
que aunque nos cause llanto
                  F#7
es este amor prohibido
              Bm
nuestra felicidad.


                Em    A7
Yo seguiré venciendo
                 D
el peligro de quererte
                 C#7
tu seguirás viviendo
                 F#7
la angustia de esperar.

                Bm
Es mejor que sigamos
                 Em
hasta la misma muerte
              Bm
es mejor que sigamos
              F#7
que sigamos pecando
              Bm
sin olvidarnos más.

 Bm
"Hay un mundo imposible

que nubla nuestras vidas,
         Em
hay un cielo de sombras

que no nos deja luz
      F#7
y a pesar de tus cosas

y a pesar de las mías
                   Bm
por sobre todo el mundo

mi mundo serás tu"


"Aunque todo se oponga

tu estarás en mi vida

tu estarás en la espuma
       Em
que en el mar va jugando

estarás como estrella
        Bm
de mi eterna sonrisa
           F#7
y olvidándolo todo
              Bm
seguiremos pecando."
Suggest correction
Give kudos to tab author, rate the tab!
1 2 3 4 5
comments
print report bad tab
guest
You may want to rate the tab now too:
select rating
Wanna post a correction for this tab? Suggest correction