Oops, an error
Loading. Please wait.

Triunfamos tab

version 2
version 2

Whole song

103 views 1 this week
no commentswrite comment
1 2 3 4 5
3 more votes to show rating
add to favorites
×
Save as Personal and add changes to this tab that will be seen only by you. Learn more ›
×
You can save this tab as Personal to edit and correct it or add notes. All changes will be seen only by you. Learn more »
launch autoscroll
font size
0
reset
how to read this tab
guitar tuner
edit
Autoscroll
slow
fast
+/-
esc
set tempo
stop
Introducción: Solo con dos guitarras al mismo tiempo
E Am dos veces
Guitarra 1
e|-----8-12-10-8-10-|---7-10-8-7--8-|---5-8-7-5-7-|
b|--10--------------|--9------------|--5----------|
g|-9----------------|-9-------------|-5-----------|
d|------------------|---------------|-------------|

guitarra 2
e|-------8----------|------7--------|-----5-------|
b|----10---12-10-12-|---9---10-9-10-|---5---9-7-9-|
g|---9--------------|--9------------|--5----------|
d|-10---------------|-9-------------|-7-----------|
a|------------------|---------------|-------------|

Guitarra 1
e|---7-10-8-7---|-13h15-------------------------|
b|--9--------10-|------17-15h17h15--------------|
g|-9------------|-----------------17-16h17h16---|
d|--------------|----------------------------19-|

guitarra 2
e|--------------|-------------------------------|
b|-----6--5-----|--6h8h6------------------------|
g|---7------7-5-|--------9---7h9h7--------------|
d|--6-----------|-----------------10---9h10h9-7-|
a|-7------------|-------------------------------|

                 Am  Dm                      Am
Une tu voz a mi voz,    para gritar que triunfamos
                  G                     F
El mundo ya se cansó, aquí seguimos los dos
                     E      e|-------------------8-10-11-12-|
Sin renunciar ni ocultarnos b|----------------10------------|
                            g|-9-8-9-10-9-8-9---------------|
                          Am  Dm                     Am
Por que ocultar nuestro amor,    seria tapar con un dedo
                   G                       F
La luz inmensa del sol, negar la gracia de Dios
          E            Am
Decir que lo blanco es negro
              Dm                            Am
Amor nada nos pudo separar, luchamos contra toda incomprensión
                     E
Del cuento ya no hay nada que contar,
                  Am
triunfamos por la fuerza del amor
    Dm                                  Am    Bb
Une tu voz a mi voz, para gritar que vencimos
                   Am                          E
Y si es pecado el amor, que el cielo de explicación
                     Am
Por que es mandato divino

Solo: Se repite la intro con los dos guitarras

              Dm           E                 Am                Am7
Amor nada nos pudo separar,  luchamos contra toda incomprensión
                     E
Del cuento ya no hay nada que contar,
                  Am
triunfamos por la fuerza del amor
    Dm                                  Am    Bb
Une tu voz a mi voz, para gritar que vencimos
                   Am                          E
Y si es pecado el amor, que el cielo de explicación
                     Am
Por que es mandato divino

Guitarra 1
e|-13h15-------------------------|
b|------17-15h17h15--------------|
g|-----------------17-16h17h16---|
g|----------------------------19-|
Guitarra 2
e|-------------------------------|
b|-6h8h6-------------------------|
g|-------9----7h9h7--------------|
d|-----------------10---9h10h9-7-|

Es versión de "LOS POTES" de Santiago de Compostela

            
            
Suggest correction
Creating personal tab
Creating personal tab
You can edit any tab online and save it as your Personal.

You can edit, replace or remove any tab part or add personal notes – all changes will be seen only by you.

Personal tabs can be accessed anytime from any device, even offline.
Learn more »
Give kudos to tab author, rate the tab!
1 2 3 4 5
comments
print report bad tab
guest
Wanna post a correction for this tab? Suggest correction