Oops, an error
Loading. Please wait.

I Got A Girl Tab

version 1
version 1

Whole song

Interactive

12,517 views 36 this week
no commentswrite comment
1 2 3 4 5
excellent!
x 7
add to favorites
launch autoscroll
font size
0
reset
how to read this tab
guitar tuner
Autoscroll
slow
fast
+/-
esc
set tempo
stop
Help us to improve Ultimate-Guitar.com Take our survey!
×
Date: Tue, 5 Sep 1995 20:44:20 -0500 (CDT)
From: Mike Farmer 
Subject: t/tripping_daisy/i_got_a_girl.tab

 I don't know why Tripping Daisy's I Got a Girl tab hasn't been posted
 cause it isn't hard and it is a really cool song.  Well, here it is.

 Intro/Verse 1:
   G5      C5      A5      G#5     G5      C5      A5      C5
 e----------------------------------------------------------------
 B----------------------------------------------------------------
 G-------------5-------------------------------5---------------5--
 D-----5-----5---0-----7-------6-------5-----5---0-----7-----5---0
 A---5---0-3---------7---0---6-------5---0-3---------7---0-3------
 E-3---------------5-------4-----0-3---------------5--------------
 
 Pre-chorus w/ mucho distortion:
   C5
 e--------
 B--------
 G-5-5-5-5
 D-5-5-5-5
 A-3-3-3-3
 E--------
 
 Chorus:
   G5       C5   A5       C5
 e---------------------------
 B---------------------------
 G----------5-5-----------5-5
 D-5-5-5-5--5-5--7-7-7-7--5-5
 A-5-5-5-5--3-3--7-7-7-7--3-3
 E-3-3-3-3-------5-5-5-5-----

 The number of times you play each chord is in question here, but the 
 chords are right and if you listen to the song, I think you can figure 
 out the exact pattern, etc.
 
 Post-Chorus (clean):
   G5      C5      A5        G#5
 e------------------------------
 B------------------------------
 G-------------5----------------
 D-----5-----5---5-7-7-7-7-7-6-6
 A---5---0-3-------7-7-7-7-7-6-6
 E-3---------------5-5-5-5-5-4-4

 Bridge(w/ distortion):
   A5      C5  G5      C5
 e------------------------
 B------------------------
 G-2-2-2-2-5-5---------5-5
 D-2-2-2-2-5-5-5-5-5-5-5-5
 A-0-0-0-0-3-3-5-5-5-5-3-3
 E-------------3-3-3-3----
      G5
 e-------------------
 B-------------------
 G-------------------
 D----5-5-5-5-5-5-5-5
 A----5-5-5-5-5-5-5-5
 E----3-3-3-3-3-3-3-3
 I'm out,etc.
 
 The outro is the same as the post-chorus, so I won't tab it out again.
 
 I think that's all the parts.  Here is how many times you play each and 
 the order, I think:

 Intro/Verse 1 x5
 Pre-chorus x1
 Chorus x4
 Verse 2 x5
 Pre-chorus x1
 Chorus x4
 Post-chorus x4
 Bridge x6
 Verse 3 x5
 Chorus x8
 Outro x4
Suggest correction
comments
print report bad tab
guest
You may want to rate the tab now too:
select rating
Wanna post a correction for this tab? Suggest correction