Oops, an error
Loading. Please wait.

I Got A Girl Tab

version 2
version 2

Whole song

Interactive

1,843 views 1 this week
no commentswrite comment
1 2 3 4 5
please rate
add to favorites
launch autoscroll
font size
0
reset
how to read this tab
guitar tuner
Autoscroll
slow
fast
+/-
esc
set tempo
stop
Help us to improve Ultimate-Guitar.com Take our survey!
×
Difficulty
novice
“I Got A Girl”
Tripping Daisy
I Am Elastic Firecracker

Tabbed by Matthew Frank
mister_rocketpop@hotmail.com

Intro:
E|-----------------|-----------------|-----------------|
B|-----------------|-----------------|-----------------|
G|-------------5---|-----------------|-------------5---|
D|-----5-----5---0-|-----7-------6---|-----5-----5---0-|
A|---5---0-3-------|---7---0---6---0-|---5---0-3-------|
E|-3---------------|-5-------4-------|-3---------------|
                    
E|-----------------|
B|-----------------|
G|-------------5---|
D|-----7-----5---0-|
A|---7---0-3-------|
E|-5---------------|

Chorus: (G2 plays the same, just with a wah)
E|-----------------|-----------------|
B|-----------------|-----------------|
G|-----------5-5---|-----------5-5---|
D|-5-5-5-5---5-5-0-|-7-7-7-7---5-5-0-|
A|-5-5-5-5---3-3-0-|-7-7-7-7---3-3-0-|
E|-3-3-3-3---------|-5-5-5-5---------|

E|-----------------|-----------------|
B|-----------------|-----------------|
G|-----------5-5---|-----------------|
D|-5-5-5-5---5-5-0-|-7-7-7-7---6-6-0-|
A|-5-5-5-5---3-3-0-|-7-7-7-7---6-6-0-|
E|-3-3-3-3---------|-5-5-5-5---4-4---|

Repeat Verse

Repeat Chorus

Interlude:
E|-----------------|-----------------|
B|-----------------|-----------------|
G|-------------5---|-----------------|
D|-----5-----5---0-|---7-7-7-7-6-6---|
A|---5---0-3-------|---7-7-7-7-6-6-0-|
E|-3---------------|---5-5-5-5-4-4-0-|

Bridge: [Guitar One]
E|-----------------|-----------------|-----------------|
B|-----------------|-----------------|-----------------|
G|-------------5---|-----------7-7\--|-4-4-4-4---9-9\--|
D|-----5-----5---0-|-7-7-7-7---7-7\--|-4-4-4-4---9-9\--|
A|---5---0-3-------|-7-7-7-7---5-5\--|-2-2-2-2---7-7\--|
E|-3---------------|-5-5-5-5---------|-----------------|

E|-----------------|-----------------|-----------------|
B|-----------------|-----------------|-----------------|
G|-5-5-5-5-5-5-5-5-|-3-3-3-3-3-3-3-3-|-2-2---7---7-7---|
D|-5-5-5-5-5-5-5-5-|-3-3-3-3-3-3-3-3-|-2-2-0-7---7-7-0-|
A|-3-3-3-3-3-3-3-3-|-1-1-1-1-1-1-1-1-|-0-0-0-5---5-5-0-|
E|-----------------|-----------------|-----------------|

E|-----------------|-----------------|-----------------|
B|-----------------|-----------------|-----------------|
G|-4-4---9---9-9---|-----------------|-----------------|
D|-4-4-0-9---9-9-0-|-8-8-8-8-8-8-8-8-|-6-6-6-6-6-6-6-6-|
A|-2-2-0-7---7-7-0-|-8-8-8-8-8-8-8-8-|-6-6-6-6-6-6-6-6-|
E|-----------------|-6-6-6-6-6-6-6-6-|-4-4-4-4-4-4-4-4-|

Bridge: [Guitar Two]
E|------|
B|10-12-|
G|------|
D|7--9--|
A|------|
E|------|

Repeat Verse

Repeat Chorus

Repeat Interlude

Ending:
E|-----------------|-----------------|--3--------------|
B|-----------------|-----------------|--3--------------|
G|-------------5---|---------5-5-5-5-|--4--------------|
D|-----5-----5---0-|-7-7-7-7-5-5-5-5-|--5--------------|
A|---5---0-3-------|-7-7-7-7-3-3-3-3-|--5--------------|
E|-3---------------|-5-5-5-5---------|--3--------------|
Suggest correction
Give kudos to tab author, rate the tab!
1 2 3 4 5
comments
print report bad tab
guest
You may want to rate the tab now too:
select rating
Please do not post tabs as comments. Select "correction" instead!