Oops, an error
Loading. Please wait.

Same Dress New Day Tab

473 views 1 this week
no commentswrite comment
1 2 3 4 5
2 more votes to show rating
add to favorites
launch autoscroll
font size
0
reset
how to read this tab
guitar tuner
Autoscroll
slow
fast
+/-
esc
set tempo
stop
Help us to improve Ultimate-Guitar.com Take our survey!
×
Triping Daisy - Same Dress, New Day

Album: I Am An Elastic Firecracker
Instrument: Guitar
Tuning: eBF#DAE

Tune the G string down a half-step

Tabbed By: Matthew Frank


Verse pt. 1

e ||------------------------------------|
B ||------------------------------------|
F#||---0---0----0---0---0---0--0---0---0|
D ||-----0--------0-------0------0---0--|
A ||-2-------3--------5-------5---------|
E ||------------------------------------|

Verse pt. 2

e ||------------------------------|--------------|
B ||------------------------------|--------------|
F#||------------------------------|--------------|
D ||-----0-------0-------0-------0|-----0-------0|
A ||---8---8---8---8---8---8---8--|---7---7---7--|
E ||-9-------9-------9-------9----|-8-------8----|

Theremin (Tabbed for Guitar)

e ||-14---12---10---10--------|
B ||--------------------11--10|
F#||--------------------------|
D ||--------------------------|
A ||--------------------------|
E ||--------------------------|

e ||-14---12---10---13|
B ||------------------|
F#||------------------|
D ||------------------|
A ||------------------|
E ||------------------|

Chorus

e ||---------|
B ||---------|
F#||---------|
D ||-0-0/0-00|
A ||-2-2/4-44|
E ||-3-3/5-55|

Chorus pt. 2

e ||-------------|
B ||-------------|
F#||-1-1-1--3-3-3|
D ||-2-2-2--2-2-2|
A ||-3-3-3--0-0-0|
E ||-------------|

Bridge

e ||-------------------------------------------------|
B ||-------------------------------------------------|
F#||-------------------------------------------------|
D ||---0--0--0--0--0--0--0--0--0--0--0--0--0--0--0--0|
A ||-5--5--0--0--5--5--0--0--5--5--0--0--5--5--0--0--|
E ||-------------------------------------------------|
Suggest correction
Give kudos to tab author, rate the tab!
1 2 3 4 5
comments
print report bad tab
guest
You may want to rate the tab now too:
select rating
Wanna post a correction for this tab? Suggest correction