Oops, an error
Loading. Please wait.

Electric Tab

3,255 views 1 this week
1 commentread comment
1 2 3 4 5
please rate
add to favorites
launch autoscroll
font size
0
reset
how to read this tab
guitar tuner
Autoscroll
slow
fast
+/-
esc
set tempo
stop
Help us to improve Ultimate-Guitar.com Take our survey!
×
Author
This probably isn't perfect, but it sounds close enough if you want more than chords.

Standard Tuning

Verse
E-------------------------3---------0--------|
B---1-0h1-----1-0h1-----3---3----0h1-0h1-3---|
G--------2---------0-------------------------|
D--2-2----2--2-2----2--0-0-0-0--2------------|
A-0---------3------------------3-------------|
E---------------------3----------------------|


Chorus (same as verse, with a small slide)
E------------------------------3---------0--------|
B---1-1s3s1-------1--0h1-----3---3----0h1-0h1-3---|
G-----2s4s2-------------0-------------------------|
D--2-2-----2-----2--2----2--0-0-0-0--2------------|
A-0-------------3------------------3--------------|
E--------------------------3----------------------|

These tears stain the wood
Like cups and condensation
I am bound to you
I cannot break the situation
He’s every subject
Of every song
Like the wind carries
He moves me along
And the shadows I can’t run from
They won’t let me go
He’s the ending of a story
That I’ll never know

He’s electric
Can’t forget it
Yeah he’s electric
Don’t forget it

Sometimes he fills me up
Sometimes it’s such a shock
This is more than I bargained for
More than I would have bought
You still look at me
With well acquainted eyes
As the memories come flooding back
In a field of butterflies

It’s electric
Don’t forget
Yeah it’s electric
I can’t forget it

I know there’s hope in there
But I wanna walk away
He’s says it’s bright in there
Even in lighter shades of grey
And though it looks like rain
I’m not gonna cry
As the seasons are changing
In your heart
So will I
I will fly

Electric

Oh yes the seasons are changing
Ohh yes the seasons are changing
I’m burning up
I’m burning up
I’m electric
Suggest correction
What's this?
You can suggest a correction to this tab. Community and Mods will review your correction and vote to approve or reject it.
comments
We did not receive enough feedback on this tab! Please rate:
print report bad tab
1 2 3 4 5
1 comment total.
0 reply
Swing & willow 15 wrote on October 29 2009, 04:20 am

This is great :) Thank you.

guest
You may want to rate the tab now too:
select rating
Please do not post tabs as comments. Select "correction" instead!