Oops, an error
Loading. Please wait.

Love Love Love Tab

version 1
version 1

Whole song

7,646 views 1 this week
1 commentread comment
1 2 3 4 5
accurate
x 3
add to favorites
launch autoscroll
font size
0
reset
how to read this tab
guitar tuner
Autoscroll
slow
fast
+/-
esc
set tempo
stop
Help us to improve Ultimate-Guitar.com Take our survey!
×
Author
Capo
4th fret
-------------------------------------------------------------------------------------
                         Tristan Prettyman - Love Love Love
-------------------------------------------------------------------------------------
Tabbed by: Christine Ma

Tuning: Standard, capo on 4

This is the complete song, and the intro sounds pretty accurate to me.
Thanks to Dave for starting me off with the chords
(http://dhost.info/AudibleMelodies/tptabs/love_love_love.txt)
Enjoy. TP rocks my socks =)

  Intro
e|----------------------------------7------------------------------------------------|
B|----------------------------------8------------------------------------------------|
G|------0----0h2-/-4-\-2p0----0-----------0------0h2-/-4-\-2p0-----------0---0--0----|
D|----2--2--------------------------------------------------------5-4-----0-----2----|
A|---2----2----------------0h3-3p2----0h2---3p2----------------0h3--5------3--3-3----|
E|--------------------------------------------------------------------------------3--|

  Verse (You guys can figure out the strum pattern yourselves, its too hard to tab
but for the other 3 chords besides the G chord, Tristan usually strums the whole 
chord, picks the top two, then continues strumming)
e|--------3---0---0-/-0--------------------------------------------------------------|
B|--------3---0---0-/-0--------------------------------------------------------------|
G|--------4---0---0---x--------------------------------------------------------------|
D|------5-5---2---5-/-7--------------------------------------------------------------|
A|--------5---2---3-/-5--------------------------------------------------------------|
E|--0-3---3--------------------------------------------------------------------------|
  
  Chorus (Again, there are a few notes that are fingerpicked)
E|--------0---0-------3---2----------------------------------------------------------|
B|--------0---1-------3---3----------------------------------------------------------|
G|--------0---0-------0---2----------------------------------------------------------|
D|------2-2---2-------0---0----------------------------------------------------------|
A|--0-2---2---3-----2-2--------------------------------------------------------------|
E|--------------0-3---3--------------------------------------------------------------|

  Bridge (Only play the open A string the first time)
e|--------3---/-----5---\-------------3----------------------------------------------|
B|--------3---/-----5---\-------------3----------------------------------------------|
G|--------0---------x----------x4-----0----------------------------------------------|
D|------2-2---/---4-4---\-----------2-2----------------------------------------------|
A|--0-3---3-3-/-5---5-5-\---------3---3----------------------------------------------|
E|-----------------------------------------------------------------------------------|

Song Order:
Intro x1
Verse x8
Chorus x4
Verse x4
Chorus x 4
Bridge x 4
Verse x2
Chorus x4
Verse x4

End by strumming G chord once

| /  slide up
| \  slide down
| h  hammer-on
| p  pull-off
| x  Mute note
===============================================================================
Suggest correction
What's this?
You can suggest a correction to this tab. Community and Mods will review your correction and vote to approve or reject it.
comments
We did not receive enough feedback on this tab! Please rate:
print report bad tab
1 2 3 4 5
1 comment total.
0 reply
TomTom101 11 wrote on June 25 2006, 02:48 pm

ver 1 is more accurate in detail, like the beginning IS a
-----0
------2
-0h2---2

guest
You may want to rate the tab now too:
select rating
Please do not post tabs as comments. Select "correction" instead!