Oops, an error
Loading. Please wait.

Love Love Love Tab

version 2
version 2

Whole song

16,933 views 6 this week
3 commentsread comments
1 2 3 4 5
accurate
x 10
add to favorites
launch autoscroll
font size
0
reset
how to read this tab
guitar tuner
Autoscroll
slow
fast
+/-
esc
set tempo
stop
Help us to improve Ultimate-Guitar.com Take our survey!
×
Author
Difficulty
Capo
intermediate
4th fret
Tristan Prettyman - Love Love Love
Tabbed by Mike Crozier
Tuning: Standard, Capo on 4th fret

Other Version of this was a bit off, this is what I came up with, hope you like it. And 
- CAPO ON 4TH FRET! :)

Intro:

E|---------------------------3---------------------------------------------|
B|---------------------------3---------------------------------------------|
G|----0---0h2-2/4-2p0---0----0------0---0h2-2/4-2p0---0-------0----0---0---|
D|-----2---------------0-0-----------2---------------0-0-------0--0-0---0--|
A|-0h2--2-------------3----------0h2--2-------------3---3/5------3---3-----|
E|------------------------3----------------------------------------------3-|

Verse: G - Bm - C - D

E|---3----0----0----0---|
B|---3----3----0----0---|
G|---0----0----5----7---|
D|---0----4----5----7---|
A|---2----2----3----5---|
E|---3----x----x----x---|

Chorus: Em - C - G - D

E|---0----0----3----2---|
B|---0----1----3----3---|
G|---0----0----0----2---|
D|---2----2----0----0---|
A|---2----3----2----x---|
E|---0----x----3----x---|

Bridge: C - D

E|---3----5---|
B|---3----5---|
G|---0----0---|
D|---2----4---|
A|---3----5---|
E|---x----x---|
Suggest correction
comments
print report bad tab
3 comments total.
0 reply
Lixeno 100 wrote on June 11 2008, 02:59 pm

Sweet tab, tho i think the intro should be

E|----------------------------3--
B|----------------------------3--
G|----0---0h2-2/4-2p0----0----0--
D|-----2------------------0------
A|-0h2--2-------------0h3--------
E|-------------------------3-----

0 reply
Zulis309 63 wrote on October 20 2008, 12:09 pm

I think the verse bit is G-Em-C-D

0 reply
Martunes 258 wrote on May 11 2010, 11:57 pm

the 2nd chord in the verses is Em

guest
You may want to rate the tab now too:
select rating
Wanna post a correction for this tab? Suggest correction