Oops, an error
Loading. Please wait.

Say Anything tab

version 2
version 2

Whole song

8,214 views 9 this week
1 commentread comment
1 2 3 4 5
x 12
add to favorites
×
Save as Personal and add changes to this tab that will be seen only by you. Learn more ›
×
You can save this tab as Personal to edit and correct it or add notes. All changes will be seen only by you. Learn more »
launch autoscroll
font size
0
reset
how to read this tab
guitar tuner
edit
Autoscroll
slow
fast
+/-
esc
set tempo
stop
Author
Difficulty
Song:    Say Anything
Artist:  Tristan Prettyman
Album:   Cedar + Gold
Video:   http://www.youtube.com/watch?v=KNzZ79hdMO8 (song starts at 0:30)
         https://www.youtube.com/watch?v=_Voz2PH4wIM (my video)
Author:  Marianne V. (mariannemvelasco@gmail.com)


The fingerpicking rhythm takes a little getting used to with the repeating bass note.
A good way to start is to play only the bass note while listening to the song so you
can get a feel for the rhythm.  The annotations above the tab indicate the basic 
finger placement for each section.


CAPO 1                                                                  CHORD SHAPES
                                                                        ------------
                                                                        *     302000
INTRO                                                                   ^     300200
-----                                                                   Em    022000
                                                                        C     x32010
    *               ^                 Em                                G     320033
e|---------------|-----------------|-------0--------------------|       D     xx0232
B|---------------|---------0-------|------------0---------------|       Am    x02210
G|-------0-------|--2h4--4------0--|--------------------0-------|       Dadd  x54030
D|-----2------0--|-----------------|-----2------------2------2--|
A|---------------|-----------------|----------------------------|
E|--3------3-----|--3--------3-----|--0------0-----0------0-----| x2


VERSE 1
-------

    *               ^                 Em
e|---------------|-----------------|----------------------------|
B|---------------|---------0-------|----------------------------|
G|-------0-------|--2h4--4------0--|-------0------------0-------|
D|-----2------0--|-----------------|-----2------2-----2------2--|
A|---------------|-----------------|----------------------------|
E|--3------3-----|--3--------3-----|--0------0-----0------0-----| x2

       If I could say anything, anything, what would it be?
       Good question for our destined reality

    C
e|-----------------------------------------------------------|--
B|------1----------------------------------------------------|--
G|----0----------------0--------------0--------------0-------|--
D|-----------0---(2)-2------0---(2)-2------0---(2)-2------0--|-- <--Ghost note (2):
A|--3-----3-----3--------3-----3--------3-----3--------3-----|--    Emphasize the hammer 
E|-----------------------------------------------------------|--    on the fretboard;
                                                                    for slight variation, 
    G                                                               play the ghost note
e|-------3---------------------3----------------|                   simultaneously with
B|-----------3-----3-----3---------3-----3------|                   the bass note 
G|-----0---------0-----------0---------0-----0--|
D|----------------------------------------------|
A|-------------------2h3------------------------|
E|--3------3---3-----------3-----3---3-----3----| x2

       I would tell you that I love you
       Even if it didn’t show
       Oh, I would tell you that I love you, baby
       By now I hope you know


VERSE 2
-------

      If you could go anywhere, anywhere, what would you see?
      Take a step in any direction, it’s make-believe
      If your mind is always moving
      It’s hard to get your heart up off the ground
      Oh yeah, your mind was always moving
      Well your thoughts never made a sound


CHORUS
------

    C                             G                       Em
e|-----------------------------|-----------------------|-----------------------|--
B|------1----------------------|------3----------------|------0----------------|--
G|----0----------------0-------|----0-----0-----0------|----0-----0-----0------|--
D|-----------0---(2)-2------0--|--------------0-----0--|--------------0-----0--|--
A|--3-----3-----3--------3-----|-----------------------|-----------------------|--
E|-----------------------------|--3-----3---3-----3----|--0-----0---0-----0----|--

    D                           C                             G
e|------0-(2)----------------|-----------------------------|-----------------------|--
B|------------3------3-------|------1----------------------|------3----------------|--
G|----2------------2------0--|----0----------------0-------|----0-----0-----0------|--
D|--0----0------0------0-----|-----------0---(2)-2------0--|--------------0-----0--|--
A|---------------------------|--3-----3-----3--------3-----|-----------------------|--
E|---------------------------|-----------------------------|--3-----3---2-----2----|--

    Am                      C           Dadd
e|-----------------------|-------------|-----|
B|------1----------------|------1------|-----|
G|----2-----2-----2------|----0-----0--|-----|
D|--------------2-----2--|-------------|-----|
A|--0-----0---0-----0----|--3-----3----|--5--|
E|-----------------------|-------------|-----|

      And we won’t break if we let go
      Cause you and I already know
      We were bound to be set free eventually
      Well, here we are now
      You can say anything

[RESUME INTRO]


VERSE 3
-------

      If I could have it go any way, any way, it’d go like this
      Take it back to a couple years yesterday to our first kiss
      In that moment I loved you
      This isn’t how I ever saw it going down
      Oh, in that moment I loved you
      I wish I knew then what I know now


CHORUS
------

      And we won’t break if we let go
      Cause you and I already know
      We were bound to be set free eventually
      Well here we are now
      You can say anything

[CONTINUE CHORUS] (C/G/Em/D only)
      You can say anything


BRIDGE
------

[SAME AS CHORUS] (C/G/Em/D only) x2
      Oh, you should listen to your heart
      It’s gonna tell you what you need
      And take care of yourself
      And don’t you worry about me

      Oh, you should listen to your hea-ea-eart
      It’s gonna tell you what you need
      To take care of yourself
      And don’t you worry about me


CHORUS
------

      And we won’t break if we let go
      Cause you and I already know
      We were bound to be set free eventually
      Well, here we are now
      You can say anything

[RESUME INTRO]
      You can say anything
      You can say anything

                           End on e|-----|
                                  B|-----|
                                  G|-----|
                                  D|-----|
                                  A|-----|
                                  E|--0--|

            
            
Suggest correction
Creating personal tab
Creating personal tab
You can edit any tab online and save it as your Personal.

You can edit, replace or remove any tab part or add personal notes – all changes will be seen only by you.

Personal tabs can be accessed anytime from any device, even offline.
Learn more »
comments
print report bad tab
1 comment total.
+1 reply
johnbourg2001 10 Nov 01, 2015 08:10 PM

That intro is spot on

guest
You may want to rate the tab now too:
select rating
Wanna post a correction for this tab? Suggest correction