Oops, an error
Loading. Please wait.

Shy That Way Tab

version 2
version 2

Whole song

26,862 views 21 this week
2 commentsread comments
1 2 3 4 5
accurate
x 9
add to favorites
launch autoscroll
font size
0
reset
how to read this tab
guitar tuner
Tab Pro tools
  • play this tab
  • loop segment
  • change instrument
  • show fretboard
  • metronome
×
Best way to learn
"Shy That Way"
Autoscroll
slow
fast
+/-
esc
set tempo
stop
Contributor
All credit goes to kimbaello for her youtube video lesson of this.
This might not be exactly how Tristan and Jason play it but it's really close and easier 
play than the other tabs I've seen.
Standard tuning no capo.

x's mean slap/mute

Verse
----x------x----x-----x------------x------x------------|
--8-x----8-x--3-x---3-x--1--0h2--2-x--3-3-x----3-------|
--7-x--7---x--2-x--2--x--0--0----0-x--0-0-x---0--------|
----x------x----x-----x------------x------x------------|
--7-x-7----x--2-x-2---x--3--3------x--1---x--1---------|
----x------x----x-----x------------x------x------------|

"Chorus"
This starts on "way" when she says "yeah well im shy that way"
----x-----x----x-----x----x------x-----x-----x--------------|
----x-----x----x-----x-8--x----8-x--7--x---7-x--------------|
--3-x---3-x--2-x---2-x-7--x---7--x--5--x--5--x--------------|
--2-x--2--x--1-x--1--x----x------x-----x-----x--------------|
--3-x-3---x--2-x-2---x-7--x--7---x--5--x-5---x--------------|
----x-----x----x-----x----x------x-----x-----x--------------|

----x-----x-----x-----x--7-x---7----------------------------|
----x-----x-----x-----x--8-x--8-----------------------------|
--3-x---3-x--2--x---2-x----x--------------------------------|
--2-x--2--x--1--x--1--x----x--------------------------------|
--3-x-3---x--2--x-2---x--7-x-7------------------------------|
----x-----x-----x-----x----x--------------------------------|

Back to verse for jason's part
Chorus starts on "way" when he says "I like it that way"

Solo coming soon hopefully!

"Bridge" (There's too much talking...)
----x------x-----x------x----x------x-----x-----x--------------|
-5--x---5--x--7--x---7--x-8--x----8-x--7--x---7-x--------------|
-5--x--5---x--7--x--7---x-7--x---7--x--5--x--5--x--------------|
----x------x-----x------x----x------x-----x-----x--------------|
----x------x-----x------x-7--x--7---x--5--x-5---x--------------|
-5--x-5----x--7--x-7----x----x------x-----x-----x--------------|

-----x------x------x------x--7-x---7----------------------------|
-5---x---5--x-7----x---7--x--8-x--8-----------------------------|
-5---x--5---x-7----x--7---x----x--------------------------------|
-----x------x------x------x----x--------------------------------|
-----x------x------x------x--7-x-7------------------------------|
-5---x-5----x-7----x-7----x----x--------------------------------|

Then chorus for the outro.
comments
print report bad tab
2 comments total.
0 reply
unsafe.saint wrote on April 17 2009, 09:47 am

hey i think the hammer on is 0h1 not 0h2 in the verse

0 reply
Tom*06 wrote on June 30 2009, 02:19 pm

Great tab!
Its how she plays it on the live at lestats video on youtube but I think the one on the album is played differently.

I think it is 0h1 to fit in with the open c chord used.

I want to post or [tab]
guest
You may want to rate the tab now too:
select rating
Please do not post tabs as comments. Select "correction" instead!