Oops, an error
Loading. Please wait.

Fight The Good Fight chords

version 1
version 1

Whole song

Interactive

by Triumph
733 views 33 this week
1 commentread comment
1 2 3 4 5
1 last vote to show rating
add to favorites
×
Save as Personal and add changes to this tab that will be seen only by you. Learn more ›
×
You can save this tab as Personal to edit and correct it or add notes. All changes will be seen only by you. Learn more »
launch autoscroll
font size
0
reset
transpose
0
reset
display chords
guitar tuner
backing track
0:00
0:00
edit
Autoscroll
slow
fast
+/-
esc
set tempo
stop
Author
Difficulty
Strumming
There is no strumming pattern for this song yet. and get +5 IQ
Artist: Triumph
Song: Fight the Good Fight
Tabbed by Landon Lefebvre
(Intro copied from other tab on here -- all credit goes to him)

[Intro]
e|------------------------------12---|--13-----------15---12------------------|
B|-------------------------15--------|o----------------------------13---15----|
G|-----------------------------------|----------------------------------------|
D|-----------------------------------|----------------------------------------|
A|-----------------------------------|o---------------------------------------|
E|-----------------------------------|----------------------------------------|

e|-----------------------------------|----------------------------------------|
B|---6-----6---------6------6--------|o----6-----6------6----5------5------3--|
G|-----9-----9---9-----9------9----9-|-------7-----7-----------5------5-------|
D|-------7-----7---------7-------7---|---------7------7----------5-------5----|
A|-5---------------5-----------------|o--5-----------------3------------------|
E|-----------------------------------|----------------------------------------|

   (Eb)              (Bb)                 (Db)              (Ab)
e|--------------13----------------------|--------------------------------------|
B|-16----------------15------------13---|-14-----------16---13------------13---|
G|----------------------------15--------|----------------------------13--------|
D|--------------------------------------|--------------------------------------|
A|--------------------------------------|--------------------------------------|
E|--------------------------------------|--------------------------------------|

e|--------------------------------------|--------------------------------------|
B|----4-----4------4----3------3------1-|----2-----2------2--------------------|
G|------3-----3-----------3------3------|------1-----1---------5------5------5-|
D|--------5------3----------3-------3---|--------3------3--------6-------------|
A|--6-----------------1-----------------|--4-----------------------6-------6---|
E|--------------------------------------|--------------------4----------4------|

   (Gm)             (Csus2)              (Gm)                       Csus2
                                                                  2/4
e|--------------------------------12--|------------------8-------|-(8)----|
B|-11---------------13-------15------o|-11-----------------------|--------|
G|------------------------------------|--------------------------|--------|
D|------------------------------------|--------------------------|--------|
A|-----------------------------------o|--------------------------|--------|
E|------------------------------------|--------------------------|--------|

e|----------3-----------------3-------|----------3---------------|-^3-----|
B|----3-------3---3----3--------3----o|----3-------3---3-------3-|-^3-----|
G|------3-------3--------5---------5--|------3-------3-------5---|-^5-----|
D|--------5----------------5----------|--------5-----------5-----|-^5-----|
A|-------------------3---------------o|------------------3-------|-^3-----|
E|--3---------------------------------|--3-----------------------|--------|

Dm   C   G       (play 4 times)

[Verse 1]
Dm            C               G                  
The days grow shorter and the nights are getting long
Dm               C              G    
Feels like we're running out of time
Dm             C               G                      
Every day it seems much harder tellin' right from wrong
Dm         C                G  
You got to read between the lines

[Bridge 1] 
Bb                     C
Don't get discouraged, don't be afraid, we can
Bb                      C
Make it through another day
Bb                         C   Gm                    
Make it worth the price we pay

[Verse 2] 
Dm            C                   G            
The Good Book says it's better to give than to receive
Dm      C             G 
I do my best to do my part
Dm            C             G             
Nothin' in my pockets I got nothin' up my sleeve
Dm        C           G     Gm   
I keep my magic in my heart 

[Bridge 2]
Bb                   C
Keep up your spirit, keep up your faith, baby
Bb               C
I am counting on you
Bb                          C   Gm   C 
You know what you've got to do 

[Chorus 1]
Dm           Bb            C      G
Fight the good fight every moment
Dm    Bb           C   G
Every minute every day
Dm           Bb            C       G
Fight the good fight every moment
C              Bb   C   Dm
It's your only way 

[Verse 3]
Dm       C                G                        
All your life you've been waiting for your chance
Dm           C            G
Where you'll fit into the plan
Dm             C                  G  
But you're the master of your own destiny
   Bb                              C
So give and take the best that you can 

[Guitar Break]
Dm -- Bb -- Dm -- Bb -- Dm -- Bb - C - Bb -- Gm -- A - Dm - C-Bb
-- Dm -- Bb -- Dm -- Bb -- Gm -- A -- Dm -- Bb -- Dm -- Bb -- Gm
-- A -- Dm - C - G - Gm - C

[Verse 4]
Dm          C                      G                   
You think a little more money will buy your soul some rest
Dm                    C              G 
You'd better think of something else instead
Dm        C               G               
You're so afraid of being honest with yourself
Dm                 C       G 
You'd better take a look inside your head 

[Bridge 3]
Bb               C
Nothing is easy, nothing good is free
Bb                          C
But I can tell you where to start
Bb                      C
Take a look inside your heart
Bb                        C     Gm   C
There's an answer in your heart 

[Chorus 2]
Dm           Bb            C      G
Fight the good fight every moment
Dm    Bb           C   G
Every minute every day
Dm           Bb            C       G
Fight the good fight every moment
Dm        Bb               C    G
Make it worth the price we pay
Dm          Bb       C        G
Every moment of your lifetime
Dm     Bb          C   G 
Every minute every day
Dm        Bb               C      G
Fight the good fight every moment
Dm      Bb        C        Bb  C
Make it worth the price we pay

[Outro]
Dm - C  - Eb - Bb - Db - Ab - Gm - C
Dm - C  - Eb - Bb - Db - Ab - Gm - C

            
            
Suggest correction
Creating personal tab
Creating personal tab
You can edit any tab online and save it as your Personal.

You can edit, replace or remove any tab part or add personal notes – all changes will be seen only by you.

Personal tabs can be accessed anytime from any device, even offline.
Learn more »
Give kudos to tab author, rate the tab!
1 2 3 4 5
comments
print report bad tab
1 comment total.
0 reply
joe.altieri.5 10 Sep 11, 2017 10:04 PM

Love this song! Thanks dude!

guest
You may want to rate the tab now too:
select rating
Wanna post a correction for this tab? Suggest correction