Oops, an error
Loading. Please wait.

A Grey So Dark Tab

version 1
version 1

Whole song

Interactive

10,960 views 1 this week
no commentswrite comment
1 2 3 4 5
accurate
x 2
add to favorites
launch autoscroll
font size
0
reset
how to read this tab
guitar tuner
Tab Pro tools
  • play this tab
  • loop segment
  • change instrument
  • show fretboard
  • metronome
Autoscroll
slow
fast
+/-
esc
set tempo
stop
Tuning
C# G# C# F# A# D#
This is half of the song, up until the solo.
I'm pretty sure it's not 100% accurate, but it sounds alright to me.
Just thought I'd share.

Drop C#.


Intro



 D#|---------------------------------------------------------------------|
 A#|---------------------------------------------------------------------|
 F#|---------------------------------------------------------------------|
 C#|---------10---10------------7---7--------9--9-----------------3~-----|
 G#|-10-777-0----0---14-101010-0---0--9-555-0--0--3333------------3~-----|
 C#|-10-777----------14-101010--------9-555-------3333--2-2-/9-5--3~-----|



Verse



 D#|----------------------------|
 A#|----------------------------|
 F#|----------------------------|
 C#|----------------------------|
 G#|----------------------------|
 C#|-7(x32)--3(x32)--7(x32)-----|
     .       .       .



Prechorus



  Rhythm

 D#|--------------------------------------------------------|
 A#|--------------------------------------------------------|
 F#|--------------------------------------------------------|
 C#|-3333333333333333-7777777777777777-3333333333333333-----|
 G#|-3333333333333333-7777777777777777-3333333333333333-----|
 C#|-3333333333333333-7777777777777777-3333333333333333-----|

 D#|-------|
 A#|-------|
 F#|-------|
 C#|-7-----|
 G#|-7-----|
 C#|-7-----|

  Lead 

 D#|------------------------------------------------------------------------------------|-
 A#|-------5-----------5----------------------------------------------------------------|-
 F#|-5-----------5------------9---12------9-------9-------9-------9-------9---12--------|-
 C#|---7-----7-----7-----7------10---10-----10------10------10------10------10---10-----|-
 G#|-----8-----8-----8-----8-------------------12------12------12------12---------------|-
 C#|------------------------------------------------------------------------------------|-

  Lead (continued)

  -|---------------------------------------------|
  -|---------------------------------------------|
  -|-10------10------10------10------10----------|
  -|----10------10------10------10------10-------|
  -|-------8-------8-------8-------8-------8-----|
  -|---------------------------------------------|

 D#|-------|
 A#|-------|
 F#|-------|
 C#|-7-----|
 G#|-7-----|
 C#|-7-----|



Chorus 



 D#|-------------------------------------------------------------------|
 A#|-------------------------------------------------------------------|
 F#|-------------------------------------------------------------------|
 C#|---------10---10------------7----7----5------3---------------------|
 G#|-10-777-0----0---14-101010-0----0-----5------3---------------------|
 C#|-10-777----------14-101010------------5-x(?)-3-x(?)---2-2-/9-5-----|
                                          ^I'm not sure how many times these chords are strummed,
                                             But you'll be able to figure it out.
 ^ Repeat twice, second ending is:

 D#|-------|
 A#|-------|
 F#|-------|
 C#|-3~----|
 G#|-3~----|
 C#|-3~----|



Second Verse



  A repeat of the first verse, but with something like this being played over top of it


  Lead

 D#|-----------------------------------------------------|-
 A#|-17----17----17----17----17----17----17----17--------|-
 F#|----14----14----14----14----14----14----14----14-----|-
 C#|-----------------------------------------------------|-
 G#|-----------------------------------------------------|-
 C#|-----------------------------------------------------|-

  Lead (continued)

  -|-----------------------------------------------------|
  -|-13----13----13----13----13----13----13----13--------|
  -|-----------------------------------------------------|
  -|----15----15----15----15----15----15----15----15-----|
  -|-----------------------------------------------------|
  -|-----------------------------------------------------|



Second Prechorus



  Repeat of the first, but with this alternate ending


 D#|-------------------|
 A#|-------------------|
 F#|-------------------|
 C#|-7--7--7--7-77-----|
 G#|-7--7--7--7-77-----|
 C#|-7--7--7--7-77-----|



Second Chorus


  Same as first, minus the ending powerchord.

  This is all I have. Hopefully it's a help to some of you.
comments
We did not receive enough feedback on this tab! Please rate:
print report bad tab
1 2 3 4 5
I want to post or [tab]
guest
You may want to rate the tab now too:
select rating
Please do not post tabs as comments. Select "correction" instead!