Oops, an error
Loading. Please wait.

A Skylines Severance Tab

version 1
version 1

Whole song

Interactive

5,973 views 1 this week
5 commentsread comments
1 2 3 4 5
x 6
add to favorites
launch autoscroll
font size
0
reset
how to read this tab
guitar tuner
Autoscroll
slow
fast
+/-
esc
set tempo
stop
Help us to improve Ultimate-Guitar.com Take our survey!
×
Author
Difficulty
Tuning
advanced
C# G# C# F# A# D#
Band:  Trivium
Song:  A Skyline's Severance
Album: In Waves

Tuning: Drop C# (C#, G#, C#, F#, A#, D#)
(Tune all strings down half a step then drop tune)

Couldn't find a tab for this so I thought I'd do it. Weird off beats in the
Solo so give some time to practise it. So here it is.

Please rate, comment, correct, anything that helps :)

Hammer on:      h
Pull off:       p
Slide up:       /
Slide down:     \
Bend up:        BU(?)
Tapped note:    T
Vibrato:        ~~~
Pinch Harmonic: PH
Dive Bomb:      DB

Guitar 1:        Matt Heafy
Guitar 2:        Corey Beaulieu
Guitar 3:        Corey Beaulieu


_________________________________________________________________________


Intro
Both guitars
|--------|
|--------|
|--------|
|--------|
|--------|
|-12\----|

Guitar 1
|---------------------------------|---------------------------------|
|---------------------------------|---------------------------------|
|---------------------------------|---------------------------------|
|-0-------------------------------|-8-------------------------------|
|-0-------------------------------|-8-------------------------------|
|-0-------------------------------|-8-------------------------------|
|
|Guitar 2
|---------------------------------|---------------------------------|
|---------------------------------|---------------------------------|
|-------------9---9/10------------|-------7-----9---9/10----9-------|
|-------7-------------------------|-8-------------------------------|
|-5-------------------------------|---------------------------------|
|---------------------------------|---------------------------------|

Guitar 1
|---------------------------------|---------------------------------|
|---------------------------------|---------------------------------|
|---------------------------------|---------------------------------|
|-8-------------------------------|-7-----------------------5-------|
|-8-------------------------------|-7---------------4p0h4h7---7p4p0-|
|-8-------------------------------|-7-------------------------------|
|
|Guitar 2
|---------------------------------|---------------------------------|
|---------------------------------|---------------------------------|
|-------7-----9---9/15------------|--------10-------9-------6-------|
|-8-------------------------------|-7-------------------------------|
|---------------------------------|---------------------------------|
|---------------------------------|---------------------------------|

The rhythm then changes to the below
Whilst guitar 2 continues to play the lead
|---------------------------------|---------------------------------|
|---------------------------------|---------------------------------|
|---------------------------------|---------------------------------|
|-0-----0-------------0---0---0---|-8-----8-------------8---8---8---|
|-0-----0-------------0---0---0---|-8-----8-------------8---8---8---|
|-0---0-0---0-0-0-0-0-0---0---0---|-8---8-8---8-8-8-8-8-8---8---8---|

|---------------------------------|---------------------------------|
|---------------------------------|---------------------------------|
|---------------------------------|---------------------------------|
|-8-----8-------------8---8---8---|-7-----7-----------------5-------|
|-8-----8-------------8---8---8---|-7-----7---------4p0h4h7---7p4p0-|
|-8---8-8---8-8-8-8-8-8---8---8---|-7---7-7---7-7-7-----------------|

Lead harmony
Guitar 3
|---------------------------------|---------------------------------|
|---------------------------------|---------------------------------|
|------------12--12/14------------|-------10----12--12/14----12-----|
|------10-------------------------|-12------------------------------|
|-8-------------------------------|---------------------------------|
|---------------------------------|---------------------------------|

|---------------------------------|---------------------------------|
|---------------------------------|---------------------------------|
|-------10----12--12/19-----------|--------14-------12-------9------|
|-12------------------------------|-10------------------------------|
|---------------------------------|---------------------------------|
|---------------------------------|---------------------------------|

_________________________________________________________________________


Verse 1
Both guitars
|---------------------------------|---------------------------------|
|---------------------------------|---------------------------------|
|---------------------------------|---------------------------------|
|---------------------------------|---------------------------------|
|-5-------\-------0---------------|---------------------------------|
|-3-------\-------0---------------|---------------------------------|

|---------------------------------|---------------------------------|
|---------------------------------|---------------------------------|
|---------------------------------|---------------------------------|
|---------------------------------|---------------------------------|
|---------------------------------|-0---5-\-4-------0---0-0---0-0-0-|
|---------------------------------|-0---3-\-2-------0---0-0---0-0-0-|

Both guitars
|---------------------------------|---------------------------------|
|---------------------------------|---------------------------------|
|---------------------------------|---------------------------------|
|---------------------------------|---------------------------------|
|/5-------4-------0-0---0---0-0-0-|-0-0/5---4-------0-0---0---0-0-0-|
|/3-------2-------0-0---0---0-0-0-|-0-0/3---2-------0-0---0---0-0-0-|

|---------------------------------|---------------------------------|
|---------------------------------|---------------------------------|
|---------------------------------|---------------------------------|
|---------------------------------|---------------------------------|
|/5-------4-------0-0---0---0-0-0-|-0-0/5---4-------0---0-0---0-0-0-|
|/3-------2-------0-0---0---0-0-0-|-0-0/3---2-------0---0-0---0-0-0-|

Both guitars
|----------------------------------|----------------------------------|
|----------------------------------|----------------------------------|
|----------------------------------|----------------------------------|
|----------------------------------|----------------------------------|
|/10-------8-------0-0---0---0-0-0-|-0-0/10---8-------0-0---0---0-0-0-|
|-/8-------7-------0-0---0---0-0-0-|-0-0-/8---7-------0-0---0---0-0-0-|

Guitar 1
|----------------------------------|----------------------------------|
|----------------------------------|----------------------------------|
|----------------------------------|----------------------------------|
|----------------------------------|----------------------------------|
|/10-------8-------0-0---0---0-0-0-|-0-0/10---8-------5---4---7PH-----|
|/-8-------7-------0-0---0---0-0-0-|-0-0-/8---7-----------------------|

Guitar 2
|----------------------------------|----------------------------------|
|----------------------------------|----------------------------------|
|----------------------------------|----------------------------------|
|----------------------------------|----------------------------------|
|/10-------8-------0-0---0---0-0-0-|-0-0/10---8-----------------------|
|/-8-------7-------0-0---0---0-0-0-|-0-0-/8---7-------8---7---5PH-----|

_________________________________________________________________________


Chorus 1
Guitar 1
||---------------------------------|---------------------------------||
|o---------------------------------|---------------------------------o|
||---------------------------------|---------------------------------||
||---------------------------------|---------------------------------||
|o-8-------------------------------|-7-------------------------------o|
||-8-------------------------------|-7-------------------------------||
|
|Guitar 2
||---------------------------------|---------------------------------||
|o---------------------------------|---------------------------------o|
||---------------------------------|-----------------------6---------||
||-7-----8-----7---5-----7-----5---|-3-----5-----3---2-----------2---||
|o---------------------------------|---------------------------------o|
||---------------------------------|---------------------------------||

Both guitars
1st and 3rd ending
|---------------------------------|---------------------------------|
|---------------------------------|---------------------------------|
|---------------------------------|---------------------------------|
|-3---------------5---------------|-7---------------7---------------|
|-5---0-0---0---0-7---0-0---0-0-0-|-8---0-0---0---0-9---0-0---0-0-0-|
|-----0-0---0---0-----0-0---0-0-0-|-----0-0---0---0-----0-0---0-0-0-|

2nd ending
|---------------------------------|---------------------------------|
|---------------------------------|---------------------------------|
|---------------------------------|---------------------------------|
|-3---------------2---------------|-5---------------3---------------|
|-5---0-0---0---0-4---0-0---0-0-0-|-7---0-0---0---0-5---0-0---0-0-0-|
|-----0-0---0---0-----0-0---0-0-0-|-----0-0---0---0-----0-0---0-0-0-|

_________________________________________________________________________


Repeat Verse 1

Repeat Chorus 1

_________________________________________________________________________


Verse 2
Guitar 1
|---------------------------------|---------------------------------|
|---------------------------------|---------------------------------|
|---------------------------------|---------------------------------|
|-3-------------------------------|-3-------------------------------|
|-------5-------5-------5---7-7-7-|-------5-------5---7-7-7-4-4-4-4-|
|---0-0---0-2h3---0-2h3---0-5-5-5-|---0-0---0-2h3---0-5-5-5-2-2-2-2-|
|
|Guitar 2
|---------------------------------|---------------------------------|
|---------------------------------|---------------------------------|
|---------------------------------|---------------------------------|
|---------------------------------|---------------------------------|
|---------------------------7-7-7-|-------------------7-7-7-4-4-4-4-|
|---------------------------5-5-5-|-------------------5-5-5-2-2-2-2-|

Guitar 1
|---------------------------------|---------------------------------|
|---------------------------------|---------------------------------|
|---------------------------------|---------------------------------|
|-3-------------------------------|---------------------------------|
|-------5-------5-------5---7-7-7-|-5-5-5-5-5-5-5-5-7-7-7-7-4-4-4-4-|
|---0-0---0-2h3---0-2h3---0-5-5-5-|-3-3-3-3-3-3-3-3-5-5-5-5-2-2-2-2-|
|
|Guitar 2
|---------------------------------|---------------------------------|
|---------------------------------|---------------------------------|
|---------------------------------|---------------------------------|
|---------------------------------|---------------------------------|
|---------------------------7-7-7-|-5-5-5-5-5-5-5-5-7-7-7-7-4-4-4-4-|
|---------------------------5-5-5-|-3-3-3-3-3-3-3-3-5-5-5-5-2-2-2-2-|

_________________________________________________________________________


Verse 3
Both guitars
|---------------------------------|---------------------------------|
|---------------------------------|---------------------------------|
|---------------------------------|---------------------------------|
|-3-------------------------------|-3-------------------------------|
|-------5-------5-------5---7-7-7-|-------5-------5---7-7-7-4-4-4-4-|
|---0-0---0-2h3---0-2h3---0-5-5-5-|---0-0---0-2h3---0-5-5-5-2-2-2-2-|

|---------------------------------|---------------------------------|
|---------------------------------|---------------------------------|
|---------------------------------|---------------------------------|
|-3-------------------------------|---------------------------------|
|-------5-------5-------5---7-7-7-|-5-5-5-5-5-5-5-5-7-7-7-7-4-4-4-4-|
|---0-0---0-2h3---0-2h3---0-5-5-5-|-3-3-3-3-3-3-3-3-5-5-5-5-2-2-2-2-|

_________________________________________________________________________


Solo 1
Guitar 1 (Rhythm)
|-------------------------|---------------------|
|-------------------------|---------------------|
|-------------------------|---------------------|
|-------------------------|---------------------|
|-------5-----------4-----|-------5-------------|
|-0-0-0---0-0-2-2-2---2-2-|-3-3-3---3-3-555-555-|

Guitar 2 (Lead)
|----------------------------|---------------------------|
|-------------10-----------8-|-------------10-11109------|
|-10-7---7-10----9-6---6-9---|-10-7---7-10----------1097-|
|------7-------------7-------|------8--------------------|
|----------------------------|---------------------------|
|----------------------------|---------------------------|

|----------------------------|---------------------------------|
|-------------10-----------8-|-------------10------10----10-13-|
|-10-7---7-10----9-6---6-9---|-10-7---7-10----9-12----12-------|
|------7-------------7-------|------8--------------------------|
|----------------------------|---------------------------------|
|----------------------------|---------------------------------|

|-10-------------9-----------|-10-------12-------9-------------|
|-13BU(15)-------12BU(14)----|-13BU(15)-15BU(17)-12BU(14)------|
|----------------------------|---------------------------------|
|----------------------------|---------------------------------|
|----------------------------|---------------------------------|
|----------------------------|---------------------------------|

|-13-------------12----------|-13-------15-------12------------|
|-16BU(18)-------15BU(17)----|-16BU(18)-18BU(20)-15BU(17)------|
|----------------------------|---------------------------------|
|----------------------------|---------------------------------|
|----------------------------|---------------------------------|
|----------------------------|---------------------------------|

|---------------------------------------------------|
|---------------------------------------------------|
|---------------------------------------------------|
|-------------7-8-10-7-8-10-------------5-7-8-5-7-8-|
|-5-7-8-5-7-8---------------4-5-7-4-5-7-------------|
|---------------------------------------------------|

|---------------------------------------------|
|----------------------------11---8-----------|
|-------------------------------------9---6---|
|-------------7-8-10--7-8-10------------------|
|-5-7-8-5-7-8---------------------------------|
|---------------------------------------------|

|---------------------------------------------------------|
|---------------8-10-11-8-10-11-------------6-8-10-6-8-10-|
|-7-9-10-7-9-10-----------------6-7-9-6-7-9---------------|
|---------------------------------------------------------|
|---------------------------------------------------------|
|---------------------------------------------------------|

Guitar 2
|----------------------|
|-11-10-8--------------|
|---------10-9-7-6-----|
|----------------------|
|----------------------|
|----------------------|
|
|Guitar 3
|-10-9------------------|
|------11-10-8----------|
|--------------10-9-----|
|-----------------------|
|-----------------------|
|-----------------------|

_________________________________________________________________________

Repeat Verse 3

_________________________________________________________________________

Solo 2
Guitar 1 (Rhythm)
|-------------------------|---------------------|
|-------------------------|---------------------|
|-------------------------|---------------------|
|-------------------------|---------------------|
|-------5-----------4-----|-------5-------------|
|-0-0-0---0-0-2-2-2---2-2-|-3-3-3---3-3-555-555-|

Guitar 2 (Lead)
|--------------------------|-------------------------|
|--------------------------|-------------------------|
|-------6-7----------7-9---|---------9-10---1097-----|
|-----7------------8-------|------11-------------753-|
|-5-8---------7-10---------|-8-12--------------------|
|--------------------------|-------------------------|

|--------------------------|-------------------------------|
|--------------------------|-------------------------------|
|-------6-7----------7-9---|---------9-10---7-9-10-9-10-12-|
|-----7------------8-------|------11-----------------------|
|-5-8---------7-10---------|-8-12--------------------------|
|--------------------------|-------------------------------|

|-------------------------------------|    |-17p13\10-13p10----|
|-10h11p10----------10h13p10----------|    |----------------10-|
|----------12p10h12----------12p10h12-| x3 |-------------------|
|-------------------------------------|    |-------------------|
|-------------------------------------|    |-------------------|
|-------------------------------------|    |-------------------|

|-------------------------------------|    |-17p13----13-------|
|-10h11p10----------10h13p10----------|    |-------15----15----|
|----------12p10h12----------12p10h12-| x3 |----------------14-|
|-------------------------------------|    |-------------------|
|-------------------------------------|    |-------------------|
|-------------------------------------|    |-------------------|

|-------------------------------------|    |-22-17----17-------|
|-17h18p17----------17h20p17----------|    |-------18----18----|
|----------19p17h19----------19p17h19-| x3 |----------------19-|
|-------------------------------------|    |-------------------|
|-------------------------------------|    |-------------------|
|-------------------------------------|    |-------------------|

|-------------------------------------|    |-20BU(22)-20BU(22)-|
|-17h18p17----------17h20p17----------|    |-------------------|
|----------19p17h19----------19p17h19-| x3 |-------------------|
|-------------------------------------|    |-------------------|
|-------------------------------------|    |-------------------|
|-------------------------------------|    |-------------------|

_________________________________________________________________________


Chorus 2
Both guitars
|-------------------------------------|---------------------------------|
|-------------------------------------|---------------------------------|
|-------------------------------------|---------------------------------|
|-8-8-8-8-8-8-8-8-7-7-7-7-11-11-11-11-|-3-------5-------7-------7-------|
|-8-8-8-8-8-8-8-8-7-7-7-7-12-12-12-12-|-5-0-0-0-7-0-0-0-8-0-0-0-9-0-0-0-|
|-8-8-8-8-8-8-8-8-7-7-7-7-11-11-11-11-|---0-0-0---0-0-0---0-0-0---0-0-0-|

|-------------------------------------|---------------------------------|
|-------------------------------------|---------------------------------|
|-------------------------------------|---------------------------------|
|-8-8-8-8-8-8-8-8-7-7-7-7-11-11-11-11-|-3-------2-------5-------3-------|
|-8-8-8-8-8-8-8-8-7-7-7-7-12-12-12-12-|-5-0-0-0-4-0-0-0-7-0-0-0-5-0-0-0-|
|-8-8-8-8-8-8-8-8-7-7-7-7-11-11-11-11-|---0-0-0---0-0-0---0-0-0---0-0-0-|

|-------------------------------------|---------------------------------|
|-------------------------------------|---------------------------------|
|-------------------------------------|---------------------------------|
|-8-8-8-8-8-8-8-8-7-7-7-7-11-11-11-11-|-3-------5-------7-------7-------|
|-8-8-8-8-8-8-8-8-7-7-7-7-12-12-12-12-|-5-0-0-0-7-0-0-0-8-0-0-0-9-0-0-0-|
|-8-8-8-8-8-8-8-8-7-7-7-7-11-11-11-11-|---0-0-0---0-0-0---0-0-0---0-0-0-|

|-------------------------------------|
|-------------------------------------|
|-------------------------------------|
|-8-8-8-8-8-8-8-8-7-7-7-7-11-11-11-11-|
|-8-8-8-8-8-8-8-8-7-7-7-7-12-12-12-12-|
|-8-8-8-8-8-8-8-8-7-7-7-7-11-11-11-11-|

_________________________________________________________________________


Breakdown
(I honestly have no clue what effects)
(Are being used to make that noise in)
(The background)
Both guitars
|---------------------------------|---------------------------------|
|---------------------------------|---------------------------------|
|---------------------------------|---------------------------------|
|-3-------2-------5-------3-------|-3-------2-----------------------|
|-5-0-0-0-4-0-0-0-7-0-0-0-5-0-0-0-|-5-0-0-0-4-0-0-0-4-4-4-4-7-7-7-7-|
|---0-0-0---0-0-0---0-0-0---0-0-0-|---0-0-0---0-0-0-2-2-2-2-5-5-5-5-|

|---------------------------------|---------------------------------|
|---------------------------------|---------------------------------|
|---------------------------------|---------------------------------|
|-3-------2-------5-------3-------|-3-------2-----------------------|
|-5-0-0-0-4-0-0-0-7-0-0-0-5-0-0-0-|-5-0-0-0-4-0-0-0-7-7-7-7-4-4-4-4-|
|---0-0-0---0-0-0---0-0-0---0-0-0-|---0-0-0---0-0-0-5-5-5-5-2-2-2-2-|

|---------------------------------|---------------------------------|
|---------------------------------|---------------------------------|
|---------------------------------|------------------effects--------|
|-3-------2-------5-------3-------|-3-------2-----------------------|
|-5-0-0-0-4-0-0-0-7-0-0-0-5-0-0-0-|-5-0-0-0-4-0-0-0-----------------|
|---0-0-0---0-0-0---0-0-0---0-0-0-|---0-0-0---0-0-0-----------------|

|---------------------------------|---------------------------------|
|---------------------------------|---------------------------------|
|---------------------------------|---------------------------------|
|-3-------2-------5-------3-------|-3-------2-----------------------|
|-5-0-0-0-4-0-0-0-7-0-0-0-5-0-0-0-|-5-0-0-0-4-0-0-0-7-7-7-7-4-4-4-4-|
|---0-0-0---0-0-0---0-0-0---0-0-0-|---0-0-0---0-0-0-5-5-5-5-2-2-2-2-|

|---------------------------------|---------------------------------|
|---------------------------------|---------------------------------|
|---------------------------------|---------------------------------|
|-3-------2-------5-------3-------|-3-------2-----------------------|
|-5-0-0-0-4-0-0-0-7-0-0-0-5-0-0-0-|-5-0-0-0-4-0-0-0-4-4-4-4-7-7-7-7-|
|---0-0-0---0-0-0---0-0-0---0-0-0-|---0-0-0---0-0-0-2-2-2-2-5-5-5-5-|

|---------------------------------|---------------------------------|
|---------------------------------|---------------------------------|
|---------------------------------|-------------------drum----------|
|-3-------2-------5-------3-------|-3-------2---------fill----------|
|-5-0-0-0-4-0-0-0-7-0-0-0-5-0-0-0-|-5-0-0-0-4-0-0-0-----------------|
|---0-0-0---0-0-0---0-0-0---0-0-0-|---0-0-0---0-0-0-----------------|

|---------------------------------|---------------------------------|
|---------------------------------|---------------------------------|
|---------------------------------|---------------------------------|
|-3-------2-------5-------3-------|-3-------2-----------------------|
|-5-0-0-0-4-0-0-0-7-0-0-0-5-0-0-0-|-5-0-0-0-4-0-0-0-4-4-4-4-7-7-7-7-|
|---0-0-0---0-0-0---0-0-0---0-0-0-|---0-0-0---0-0-0-2-2-2-2-5-5-5-5-|

|---------------------------------|---------------------------------|
|---------------------------------|---------------------------------|
|---------------------------------|---------------------------------|
|-3-------2-------5-------3-------|-3-------2-----------------------|
|-5-0-0-0-4-0-0-0-7-0-0-0-5-0-0-0-|-5-0-0-0-4-0-0-0-7-7-7-7-4-4-4-4-|
|---0-0-0---0-0-0---0-0-0---0-0-0-|---0-0-0---0-0-0-5-5-5-5-2-2-2-2-|

|---------------------------------|---------------------------------|
|---------------------------------|---------------------------------|
|---------------------------------|---------------------------------|
|-3-------2-------5-------3-------|-3-------2-----0effects----------|
|-5-0-0-0-4-0-0-0-7-0-0-0-5-0-0-0-|-5-0-0-0-4-0-0-0effects----------|
|---0-0-0---0-0-0---0-0-0---0-0-0-|---0-0-0---0-0-0effects----------|

That's all, please rate :)
Suggest correction
comments
print report bad tab
5 comments total. Showing first comments.
+1 reply
metalhead601 208 Feb 01, 2013 03:15 PM

Perfect from what I see nice job 5 stars.

+1 reply
Metal_Master_0 60 Aug 12, 2013 02:25 PM

I think the effects at the end are a combination of a whammy pedal and a wah pedal being pushed from fully forward to fully back at the same time. Perfect tab.

+1 reply
Metal_Master_0 60 Aug 12, 2013 02:53 PM

sorry about the double post but for the part with the effect I mentioned, you do a false harmonic over the 4th fret and sweep from the 1st string to the 6th string.

guest
You may want to rate the tab now too:
select rating
Wanna post a correction for this tab? Suggest correction