Oops, an error
Loading. Please wait.

A View Of Burning Empires Tab

version 1
version 1

Whole song

Interactive

4,325 views 6 this week
2 commentsread comments
1 2 3 4 5
excellent!
x 4
add to favorites
launch autoscroll
font size
0
reset
how to read this tab
guitar tuner
Autoscroll
slow
fast
+/-
esc
set tempo
stop
Help us to improve Ultimate-Guitar.com Take our survey!
×
Contributor
Difficulty
Tuning
pspsean 175
novice
D A D G B E
Guitar 1
       Continued From When All Light Dies                
       <                                                 
       H                                  Q       Q      
E||-----------------------------------------------------|
B||-----------------------------------------------------|
G||--(15)-------------------------------(14)----(12)----|
D||-----------------------------------------------------|
A||---13---------------------------------12------10-----|
D||-----------------------------------------------------|


    H           Q       Q          Q       Q       Q       Q      
------------------------------|----------------------------------|
------------------------------|----------------------------------|
--(17)--------(15)----(14)----|--(14)----(15)----(14)----(12)----|
------------------------------|----------------------------------|
---15----------13------12-----|---12------13------12------10-----|
------------------------------|----------------------------------|


   H          Q       Q          H           Q       Q      
----------------------------|------------------------------|
----------------------------|------------------------------|
--(7)--------(9)----(10)----|--(15)--------(14)----(12)----|
----------------------------|------------------------------|
---5----------7-------8-----|---13----------12------10-----|
----------------------------|------------------------------|


    H           Q       Q          Q       Q       Q       Q      
------------------------------|----------------------------------|
------------------------------|----------------------------------|
--(17)--------(15)----(14)----|--(14)----(15)----(14)----(12)----|
------------------------------|----------------------------------|
---15----------13------12-----|---12------13------12------10-----|
------------------------------|----------------------------------|


   H          Q       Q      7x
-----------------------------||
-----------------------------||
--(7)--------(9)----(10)----*||
----------------------------*||
---5----------7-------8------||
-----------------------------||









Guitar 2
      Continued From When All Light Dies                                      
      <                                                                       
      H                                  Q     Q        H         Q     Q     
E||-------------------------------------------------|------------------------|
B||--18---------------------------------17----15----|--20--------28----27----|
G||-------------------------------------------------|------------------------|
D||--15---------------------------------14----12----|--17--------15----14----|
A||-------------------------------------------------|------------------------|
D||-------------------------------------------------|------------------------|


   Q     Q     H            H         Q     Q        H         Q     Q     
------------------------|------------------------|------------------------|
--17----18----17--------|--10--------12----13----|--18--------17----15----|
------------------------|------------------------|------------------------|
--14----15----14--------|---7---------9----10----|--15--------14----12----|
------------------------|------------------------|------------------------|
------------------------|------------------------|------------------------|


   H         Q     Q        Q     Q     H            H         Q     Q     7x
------------------------|------------------------|-------------------------||
--20--------28----27----|--17----18----17--------|--10--------12----13-----||
------------------------|------------------------|------------------------*||
--17--------15----14----|--14----15----14--------|---7---------9----10----*||
------------------------|------------------------|-------------------------||
------------------------|------------------------|-------------------------||





Guitar 3
     Continued From When All Light Dies                            
     G5                                                            
     <                                                             
     E                                  S S E  S S S S E  S S S S  
E||---------------------------------------------------------------|
B||--8----------------------------------8-8-8--8-8-8-8-8--8-8-8-8-|
G||--7----------------------------------7-7-7--7-7-7-7-7--7-7-7-7-|
D||--5----------------------------------5-5-5--5-5-5-5-5--5-5-5-5-|
A||--5----------------------------------5-5-5--5-5-5-5-5--5-5-5-5-|
D||--5----------------------------------5-5-5--5-5-5-5-5--5-5-5-5-|


   A#5                                       
   E   S  S  E   S  S  S  S  E   S  S  S  S  
--------------------------------------------|
--11--11-11-11--11-11-11-11-11--11-11-11-11-|
--10--10-10-10--10-10-10-10-10--10-10-10-10-|
---8---8--8--8---8--8--8--8--8---8--8--8--8-|
---8---8--8--8---8--8--8--8--8---8--8--8--8-|
---8---8--8--8---8--8--8--8--8---8--8--8--8-|


  F5             A5                      D5                            
  E  S S E  S S  S  S  E   S  S  S  S    E  S S E  S S S S E  S S S S  
--------------------------------------|-------------------------------|
--6--6-6-6--6-6-10-10-10--10-10-10-10-|--3--3-3-3--3-3-x-3-3--3-3-3-3-|
--5--5-5-5--5-5--9--9--9---9--9--9--9-|--2--2-2-2--2-2-x-2-2--2-2-2-2-|
--3--3-3-3--3-3--7--7--7---7--7--7--7-|--0--0-0-0--0-0-x-0-0--0-0-0-0-|
--3--3-3-3--3-3--7--7--7---7--7--7--7-|--0--0-0-0--0-0-x-0-0--0-0-0-0-|
--3--3-3-3--3-3--7--7--7---7--7--7--7-|--0--0-0-0--0-0-x-0-0--0-0-0-0-|


  G5                               A#5                                       
  E  S S E  S S S S E  S S S S     E   S  S  E   S  S  S  S  E   S  S  S  S  
-------------------------------|--------------------------------------------|
--8--8-8-8--8-8-8-8-8--8-8-8-8-|--11--11-11-11--11-11-11-11-11--11-11-11-11-|
--7--7-7-7--7-7-7-7-7--7-7-7-7-|--10--10-10-10--10-10-10-10-10--10-10-10-10-|
--5--5-5-5--5-5-5-5-5--5-5-5-5-|---8---8--8--8---8--8--8--8--8---8--8--8--8-|
--5--5-5-5--5-5-5-5-5--5-5-5-5-|---8---8--8--8---8--8--8--8--8---8--8--8--8-|
--5--5-5-5--5-5-5-5-5--5-5-5-5-|---8---8--8--8---8--8--8--8--8---8--8--8--8-|


  F5             A5                      D5                              
  E  S S E  S S  S  S  E   S  S  S  S    E  S S E  S S S S E  S S S S  7x
--------------------------------------|--------------------------------||
--6--6-6-6--6-6-10-10-10--10-10-10-10-|--3--3-3-3--3-3-3-3-3--3-3-3-3--||
--5--5-5-5--5-5--9--9--9---9--9--9--9-|--2--2-2-2--2-2-2-2-2--2-2-2-2-*||
--3--3-3-3--3-3--7--7--7---7--7--7--7-|--0--0-0-0--0-0-0-0-0--0-0-0-0-*||
--3--3-3-3--3-3--7--7--7---7--7--7--7-|--0--0-0-0--0-0-0-0-0--0-0-0-0--||
--3--3-3-3--3-3--7--7--7---7--7--7--7-|--0--0-0-0--0-0-0-0-0--0-0-0-0--||
Duration Legend
---------------
W - whole
H - half
Q - quarter
E - 8th
S - 16th
T - 32nd
X - 64th
. - note dotted
|-n-|  - n-tuplets


Tablature Legend
----------------
L - tied note
x - dead note
g - grace note
(n) - ghost note
> - accentuded note
NH - natural harmonic
AH - artificial harmonic
TH - tapped harmonic
SH - semi harmonic
PH - pitch harmonic
h - hammer on
p - pull off
b - bend
br - bendRelease
pb - preBend
pbr - preBendRelease
brb - bendReleaseBend
\n/ - tremolo bar dip
\n - tremolo bar dive
-/n - tremolo bar Release up
/n\ - tremolo bar inverted dip
/n - tremolo bar return
-\n - tremolo bar Release down
S - shift slide
s - legato slide
/ -  slide into from below or out of upwards
\ -  slide into from above or out of downwards
~ - vibrato
W - wide vibrato
tr - trill
TP - tremolo picking
T - tapping
S - slap
P - pop
< - fade in
^ - brush up
v - brush down
Suggest correction new What's this?
You can suggest a correction to this tab. Community and Mods will review your correction and vote to approve or reject it.
comments
print report bad tab
2 comments total.
0 reply
geetar_man0 1,135 wrote on May 27 2007, 09:28 pm

in like bar 3 of the second part it says 28 and 27 i assume it means 18 and 17 ...need to correct that

0 reply
pspsean 175 wrote on December 13 2008, 03:10 pm

o yeah sorry bar 2 of the second guitar should have 18 and 17 as top notes instead of 28 and 27

guest
You may want to rate the tab now too:
select rating
Please do not post tabs as comments. Select "correction" instead!