Oops, an error
Loading. Please wait.

Anthem We Are The Fire Tab

version 1
version 1

Solo

Whole song

9,271 views 1 this week
6 commentsread comments
1 2 3 4 5
accurate
x 4
add to favorites
launch autoscroll
font size
0
reset
how to read this tab
guitar tuner
Tab Pro tools
  • play this tab
  • loop segment
  • change instrument
  • show fretboard
  • metronome
×
Best way to learn
"Anthem We Are The Fire"
Autoscroll
slow
fast
+/-
esc
set tempo
stop
Contributor
ANTHEM (WE ARE THE FIRE)(SOLO) BY TRIVIUM
PUT UP BY ZACK KNIGHT....

Guitar One - Corey Beaulieu
Guitar Two - Matt Heafy

note: this is from MiniMosher's Anthem tab but i made some changes to make it a tad easier...

Guitar One

e|----------------------------------------------------------------|
B|----------------------------------------------------------------|
G|-------------------------------------------------12-----12-14---|
D|------------------12-----12h14--12h14h15p12h14h15--14h15--------|
A|----------12h14h15--14h15-----15--------------------------------|
E|-12h14p15-------------------------------------------------------|

e|--------------------------------------------20------------|
B|----------------------------------15--20bu22--22r20-------|
G|--12h14h15/17-14h15h17/19-15h17h19------------------------|
D|----------------------------------------------------------|
A|----------------------------------------------------------|
E|----------------------------------------------------------|

e|--15--13-13-13--15--12-12-12--13--10-10-10-10/12\10------------|
B|--17--15-15-15--17--13-13-13--15--12-12-12-12/13\12------------|
G|----------------------------------------------------14-12-14---|
D|----------------------------------------------------14-12-14---|
A|---------------------------------------------------------------|
E|---------------------------------------------------------------|

e|-------------------------------------------|
B|---------------------------13-15b17r15-----|
G|--0-12-0-12/14-0-12-0-12-14----------------|
D|--0-12-0-12/14-0-12------------------------|
A|-------------------------------------------|
E|-------------------------------------------|

e|--T--------T-------------------------------------------|
B|-17p10h13h17p10h13-T-------T---------------------------|
G|------------------16p9h12h17p9h12-T-------T-------T----|
D|---------------------------------16p9h12h17p9h12h16----|
A|-------------------------------------------------------|
E|-------------------------------------------------------|

e|---------------------------------------|
B|---------------------------------------|
G|---------------------------9/10\9*-----|
D|-----------------7-10-7-10-------------|
A|--------7-10-7-10----------------------|
E|--5-8-10-------------------------------|

e|---------------12-15/19\15-12-----------------|
B|-------------12--------------12---------------|
G|-----------12------------------12-------------|
D|---------14----------------------14-----------|
A|-------14--------------------------14---------|
E|--12h15------------------------------15-------|

e|-------15h19p15----------15h19p15------151515131313151515171715151313-12-|
B|-----16--------16------16--------16----171717151515171717181817171515-13-|
G|---17------------17--17------------17------------------------------------|
D|-17----------------17----------------------------------------------------|
A|-------------------------------------------------------------------------|
E|-------------------------------------------------------------------------|

Guitar Two

e|----------------------12----12-17~-|
B|-------------10-15-10----14--------|
G|--------7-11-----------------------|
D|------9----------------------------|
A|----7------------------------------|
E|--5--------------------------------|

e|--19p15p12--15p12-----15p12-------------------------------------------|
B|----------19-----19p15-----19p15p12h15p12--19b20r19p17p15-------------|
G|---------------------------------------------------------14-16~~~-----|
D|----------------------------------------------------------------------|
A|----------------------------------------------------------------------|
E|----------------------------------------------------------------------|

e|--14p10--------------10h14p10------10h14/17p14----------14--|
B|-------12----------12--------12--12-----------15------15----|
G|---------11------11------------11---------------16--16------|
D|-----------12--12---------------------------------16--------|
A|-------------14---------------------------------------------|
E|------------------------------------------------------------|


e|-19-19-19--17-17-17-17--14-14--17~~~~-----|
B|------------------------------------------|
G|-16-16-16--14-14-14-14--11-11--14---------|
D|------------------------------------------|
A|------------------------------------------|
E|------------------------------------------|

Here's that harmonized part after Matt's solo...

e|-5-7-8-8/12\10-8-10-12-12/17-15---|
B|----------------------------------|
G|-2-4-5-5/9-\7--5-7--9--9-/14-12---|
D|----------------------------------|
A|----------------------------------|
E|----------------------------------|

e|-5-7-8-8/12\10-8-10-12-12--20-19-17-15-13-12--15~~-------------------------|
B|---------------------------------------------------------------------------|
G|-2-4-5-5/9-\7--5-7--9--9---17-16-14-12-10-9---12~~--9*w\-------//----------|
D|----------------------------------------------------9*w\\-----//-----------|
A|--------------------------------------------------------\\---//------------|
E|---------------------------------------------------------\\-//-------------|
                                                             V


END

T = pick tapping

comments
print report bad tab
6 comments total. Showing first comments.
0 reply
guitarsuperman2 wrote on November 30 2006, 11:48 am

nice. dam good job on it.

0 reply
MiniMosher wrote on December 4 2006, 03:39 pm

you just nicked thiss off of me :( pittyfull, truly pittyfull

0 reply
zackvalo16 wrote on December 4 2006, 11:21 pm

i made some changes to it too dude so yah i used it as an example but added some of my own stuff too...

I want to post or [tab]
guest
You may want to rate the tab now too:
select rating
Please do not post tabs as comments. Select "correction" instead!