Oops, an error
Loading. Please wait.

Ascendancy power

version 1
version 1
by Trivium
819 views 1 this week
2 commentsread comments
1 2 3 4 5
x 3
add to favorites
guitar tuner
Autoscroll
slow
fast
+/-
esc
set tempo
stop
File Format
Filesize
Instruments
.ptb
33 Kb
lead_guitars
"Ascendancy"
demo version
Play now

or get full version for Free

×
Get full version now!
Learn and play this song
in Tab Pro
Try for free

or get $10 off Welcome Bonus

Get welcome bonus
Get access to Tab Pro version of “Ascendancy”!
Tab Pro is a premium guitar tab service, available on PC, Mac, iOS and Android
TRY FOR FREE
Your download will start in 7 seconds
×
Like this song? We have more! Follow us on Facebook for daily tips, lessons and other guitar-related content.
To download “Ascendancy” Power tab click button below
Please note that you must have Power Tab software installed on your
computer in order to view this file.
Suggest correction
Give kudos to tab author, rate the tab!
1 2 3 4 5
comments
report bad tab
2 comments total.
0 reply
RandomHeroJr 41 Feb 05, 2006 09:25 AM

Flippin great but not quite how trivium play it in places

0 reply
rcw110131 696 Apr 11, 2007 09:04 PM

The duel part is wrong (don't worry, no tab has it correct), here's how it actually goes:

Left Guitar
E|-----------------|----------------|-----------------|----------------|
B|-----------------|----------------|-7---------------|----------------|
G|-----------------|----------------|---9-7-6-9-7-6---|7-6-----6-------|
D|------11-------9-|------7---------|---------------9-|----9-7---9-7-6-|
A|9-7-9------9-7---|--9-7-----9-7-9-|-----------------|----------------|
D|-----------------|----------------|-----------------|----------------|

E|-----------------|----------------|----------------|----------------|
B|-----------------|----------------|----------------|----------------|
G|-----------------|----------------|7-6-----6-------|----------------|
D|-------7-------6-|------4---------|----9-7---9-7-6-|9-7-6---7-6-----|
A|5-4-5------5-4---|--5-4-----5-4-5-|----------------|------9-----9-7-|
D|-----------------|----------------|----------------|----------------|

x2


Right Guitar
E|-----------------|----------------|-----------------|----------------|
B|-----------------|----------------|10-9-7---9-7-----|7---------------|
G|-------9-------7-|------6---------|-------9-----9-7-|--9-7-6-9-7-6---|
D|7-6-7------7-6---|--7-6-----7-6-7-|-----------------|--------------9-|
A|-----------------|----------------|-----------------|----------------|
D|-----------------|----------------|-----------------|----------------|

E|-----------------|----------------|----------------|----------------|
B|-----------------|----------------|7---------------|----------------|
G|-----------------|----------------|--9-7-6-9-7-6---|7-6-----6-------|
D|------11-------9-|------7---------|--------------9-|----9-7---9-7-6-|
A|9-7-9------9-7---|--9-7-----9-7-9-|----------------|----------------|
D|-----------------|----------------|----------------|----------------|

x2

guest