Oops, an error
Loading. Please wait.

Ascendancy guitar pro

version 2
version 2

Whole song

  • There is still alot wrong, like the solo and the part after. I'll fix that soon.
by Trivium
2,803 views 1 this week
3 commentsread comments
1 2 3 4 5
1 last vote to show rating
add to favorites
guitar tuner
Autoscroll
slow
fast
+/-
esc
set tempo
stop
Author
File Format
Filesize
Instruments
.gp5
52 Kb
rhythm_guitars #2, lead_guitars, basses
"Ascendancy"
demo version
Play now

or get full version for Free

×
Get full version now!
Learn and play this song
in Tab Pro
Try for free

or get $10 off Welcome Bonus

Get welcome bonus
Get access to Tab Pro version of “Ascendancy”!
Tab Pro is a premium guitar tab service, available on PC, Mac, iOS and Android
TRY FOR FREE
Your download will start in 7 seconds
×
Like this song? We have more! Follow us on Facebook for daily tips, lessons and other guitar-related content.
To download “Ascendancy” Guitar Pro tab click button below
Please note that you must have Guitar Pro software installed on your
computer in order to view this file.
Suggest correction
Give kudos to tab author, rate the tab!
1 2 3 4 5
comments
report bad tab
3 comments total.
0 reply
cahshyjohn 10 Aug 30, 2006 04:37 AM

Nice tab but the solo Starts
----------------------------------
---19p14---14----------------------------
--------18--------------------------
--------------16-14--------------------
--------------------16-14--------------
------------------------------------
And thats definitly how he plays it its in Total guitar #145
Nice work otherwise tough

0 reply
mysistermeac 526 Aug 30, 2006 11:16 AM

Ok, well it wasnt the solo I wanted to correct with this tab. Ive noticed that ppl forget the lighter part that Corey plays in the verses. And then after the solo, Matt plays 0000000002222224444444222222, not 44444446666666777777666666, thats coreys part. Well check out the tab you'll know what I mean

0 reply
rcw110131 696 Apr 11, 2007 09:02 PM

The duel part is wrong (don't worry, no tab has it correct), here's how it actually goes:

Left Guitar
E|-----------------|----------------|-----------------|----------------|
B|-----------------|----------------|-7---------------|----------------|
G|-----------------|----------------|---9-7-6-9-7-6---|7-6-----6-------|
D|------11-------9-|------7---------|---------------9-|----9-7---9-7-6-|
A|9-7-9------9-7---|--9-7-----9-7-9-|-----------------|----------------|
D|-----------------|----------------|-----------------|----------------|

E|-----------------|----------------|----------------|----------------|
B|-----------------|----------------|----------------|----------------|
G|-----------------|----------------|7-6-----6-------|----------------|
D|-------7-------6-|------4---------|----9-7---9-7-6-|9-7-6---7-6-----|
A|5-4-5------5-4---|--5-4-----5-4-5-|----------------|------9-----9-7-|
D|-----------------|----------------|----------------|----------------|

x2


Right Guitar
E|-----------------|----------------|-----------------|----------------|
B|-----------------|----------------|10-9-7---9-7-----|7---------------|
G|-------9-------7-|------6---------|-------9-----9-7-|--9-7-6-9-7-6---|
D|7-6-7------7-6---|--7-6-----7-6-7-|-----------------|--------------9-|
A|-----------------|----------------|-----------------|----------------|
D|-----------------|----------------|-----------------|----------------|

E|-----------------|----------------|----------------|----------------|
B|-----------------|----------------|7---------------|----------------|
G|-----------------|----------------|--9-7-6-9-7-6---|7-6-----6-------|
D|------11-------9-|------7---------|--------------9-|----9-7---9-7-6-|
A|9-7-9------9-7---|--9-7-----9-7-9-|----------------|----------------|
D|-----------------|----------------|----------------|----------------|

x2

guest
You may want to rate the tab now too:
select rating