Oops, an error
Loading. Please wait.

Ascendancy Tab

version 2
version 2
4,925 views 3 this week
4 commentsread comments
1 2 3 4 5
accurate
x 8
add to favorites
launch autoscroll
font size
0
reset
how to read this tab
guitar tuner
Autoscroll
slow
fast
+/-
esc
set tempo
stop
Help us to improve Ultimate-Guitar.com Take our survey!
×
Author
Difficulty
intermediate
Trivium - Ascendancy
Tuning - DADGBE

Intro/Chorus - Cory
   
|-------------------------|-------------------------|
|-------------------------|-------------------------|
|-----6--------6----------|-----2--------2----------|
|--4--4--x--4--4--x-x-x-x-|--0--4--x--0--4--x-x-x-x-|
|--4-----x--4-----x-x-x-x-|--0-----x--0-----x-x-x-x-|
|--4-----4--4-----4-4-4-4-|--0-----0--0-----0-0-0-0-| Do this 4 times.

Intro/Chorus - Matt

|-------------------------|-------------------------|
|-------------------------|-------------------------|
|-----6--------6----------|-----2--------2----------|
|--4--6--x--4--6--x-x-x-x-|--0--0--x--0--0--x-x-x-x-|
|--4-----x--4-----x-x-x-x-|--0-----x--0-----x-x-x-x-|
|--4-----4--4-----4-4-4-4-|--0-----0--0-----0-0-0-0-| Do This 4 Times.

Guitar 3 (Do this 2 times)

|-----------------------|
|-----------------------|
|-----------------------|
|--6--4--2~---6--4--7~--|
|-----------------------|
|-----------------------| Then...

|--------------------------|--------------------------|
|--------------------------|--------------------------|
|--------------------------|--------------------------|
|--11--9--7~---11--9--6~---|--11--9--7~---11--9--12~--|
|--------------------------|--------------------------|
|--------------------------|--------------------------| Do this once.

Verse - Cory (Do this twice)

|---------------------------------|---------------------------------|
|---------------------------------|---------------------------------|
|---------------------------------|---------------------------------|
|-----------------7-7-7-7-7-7-7-7-|-----------------7-7-7-7-6-6-6-6-|
|---------------------------------|---------------------------------|
|-4-4-4-4-4-4-4-4-----------------|-4-4-4-4-4-4-4-4-----------------|

|---------------------------------|----------------------------------|
|---------------------------------|----------------------------------|
|---------------------------------|----------------------------------|
|-----------------6-6-6-6-6-6-6-6-|---------4-4-4-4----------6-6-6-6-|
|---------------------------------|----------------------------------|
|-3-3-3-3-3-3-3-3-----------------|-0-0-0-0---------3-3-3-3----------|

(Do this twice too)

|-------------------|---------------------|-------------------|
|-------------------|---------------------|-------------------|
|-------------------|---------------------|-------------------|
|-----------------7-|-----------------7-6-|-----------------6-|
|-----------------4-|-----------------4-4-|-----------------4-|
|-4-4-4-4-4-4-4-4---|-4-4-4-4-4-4-4-4-----|-3-3-3-3-3-3-3-3---|

Continued from above...
|----------------------|
|----------------------|
|----------------------|
|---------4----------6-|
|---------4----------4-|
|-0-0-0-0----3-3-3-3---|

Verse - Matt (Do this four times)

|---------------------------------|---------------------------------|
|---------------------------------|---------------------------------|
|---------------------------------|---------------------------------|
|-----------------7-7-7-7-7-7-7-7-|-----------------7-7-7-7-6-6-6-6-|
|---------4-4-4-4-----------------|---------4-4-4-4-----------------|
|-4-4-4-4-------------------------|-4-4-4-4-------------------------|

|---------------------------------|---------------------------------|
|---------------------------------|---------------------------------|
|---------------------------------|---------------------------------|
|-----------------6-6-6-6-6-6-6-6-|---------4-4-4-4---------6-6-6-6-|
|---------3-3-3-3-----------------|---------------------------------|
|-3-3-3-3-------------------------|-0-0-0-0---------3-3-3-3---------|

Pre Chorus - Cory (Do this twice)

|---------------------------------------------|
|---------------------------------------------|
|----------------------------------4----------|
|-4----------6----------7---------------------|
|---5--5-5-5---5--5-5-5---5--5-5-5---5--5-5-5-|
|---------------------------------------------|

Continued from above...
|---------------------------------------------|-----------------------|
|---------------------------------------------|-----------------------|
|----------------------------------6----------|--13-11-14--13--14--16-|
|-6----------7----------9---------------------|--x--x--x---x---x---x--|
|---7--7-7-7---7--7-7-7---7--7-7-7---7--7-7-7-|--11-9--12--11--12--14-|
|---------------------------------------------|-----------------------|

Pre Chorus - Matt (Do this twice)

|---------------------------------------------|
|---------------------------------------------|
|------------4----------6----------7----------|
|-7-------------------------------------------|
|---5--5-5-5---5--5-5-5---5--5-5-5---5--5-5-5-|
|---------------------------------------------|

Continued from above...

|---------------------------------------------|------|---------------------|
|---------------------------------------------|------|---------------------|
|------------6----------7----------9----------|------|---------------------|
|-9-------------------------------------------|--0~--|--------99-1111-1212-|
|---7--7-7-7---7--7-7-7---7--7-7-7---7--7-7-7-|--0~--|-7-9-7---------------|
|---------------------------------------------|--0~--|---------------------|

Do The Intro/Chorus Here.
Now Repeat All The Above Then...

Bridge and backing for solo - Matt

|-----------------------|---------------------------|---------------------|
|-----------------------|---------------------------|---------------------|
|-----------------------|---------------------------|-7-------6-----------|
|-7----------6----------|---------------------------|----------------7----|
|-----------------------|---------------------------|---------------------|
|---4--4-4-4---4--4-4-4-|-4--4-4-4--4--4-4-4--4-4-4-|---4-4-----4-4----4-4|

Continued from above...
Cory joins here--x
|----------------x|-----------------------|---------------------------|
|----------------x|-----------------------|---------------------------|
|----------------x|-----------------------|---------------------------|
|---6--------6--7x|-7----------6----------|---------------------------|
|-----------------|-----------------------|---------------------------|
|-4---4--4-4------|---0--0-0-0---0--0-0-0-|-0--0-0-0--0--0-0-0--0-0-0-|

Continued from above...
|----------------------|-------------|
|----------------------|-------------|
|----------------------|-------------|
|----------------------|-------------|
|------9------11-------|-11--12---16-|
|-0--7---0--9----0--11-|-------------|

Bridge and backing for solo - Cory (look in Matts part to see where to join)

|------------------------|------------------|------------------------------|
|------------------------|-----10-----9-----|---------------------------14-|
|------------------------|------------------|-----11-----13------13-14-----|
|----4-------------------|-0-7----0-6---0-7-|-0-7----0-9----0-11-----------|
|---------------7--------|------------------|------------------------------|
|-12---0--0--0---0--0--0-|------------------|------------------------------|

Continued from above...
|-----------------------|---------------------------|
|-----------------------|---------------------------|
|-----------------------|---------------------------|
|-4---------------------|---------------------------|
|------------7----------|---------------------------|
|---4--4-4-4---4--4-4-4-|-4--4-4-4--4--4-4-4--4-4-4-|

Continued from above...
|------------------------|----------------|-----------------------|
|------------------------|----------------|-----------------------|
|-4----------------------|----------------|-----------------------|
|---------7--------4-----|----------------|-4---------------------|
|------------------------|---7--------7-9-|------------7----------|
|---4-4-4---4-4-4----4-4-|-4---4--4-4-----|---0--0-0-0---0--0-0-0-|

Solo

|--------------------------------|----------------------|----------|
|-14--14-12----12----------------|----------------------|----------|
|-----------14----14-13-14-13-11-|-13-11----11----------|----------|
|--------------------------------|-------14----14-12-11-|-9--14-11-|
|--------------------------------|----------------------|----------|
|--------------------------------|----------------------|----------|

|----------|--------------------------------|----------------------|
|----------|-15--15-14-12-14-12----12-------|----------------------|
|----------|--------------------14----14-13-|-14-13-11-13-11-------|
|-9-11-9---|--------------------------------|----------------14-12-|
|--------12|--------------------------------|----------------------|
|----------|--------------------------------|----------------------|

|14-14-17-16|------------------------------------------------------------14|
|-----------|-14-15-15b-15b-14-14-14-14-12-----------------------14-15-17--|
|-----------|------------------------------13--14-13-------14-16-----------|
|-----------|----------------------------------------14-16-----------------|
|-----------|--------------------------------------------------------------|
|-----------|--------------------------------------------------------------|

(Tremlo pick this twice)
|17161414191714141716141419171414|14---------------------------------------|
|--------------------------------|-----------------------------------------|
|--------------------------------|-----------------------16-18-------------|
|--------------------------------|--------------16-18-19-------------16-18-|
|--------------------------------|-----16-17-19----------------17-19-------|
|--------------------------------|-----------------------------------------|

|----------------------------------------|
|---------------------------------17--19~|
|---16-18-19-------------16-18-19--------|
|19-------------16-18-19-----------------|
|------------19--------------------------|
|----------------------------------------| End Solo

Part after Solo - Cory

|------------------------------|----------------------------------|
|------------------------------|----------------------------------|
|------------------------------|11-----9-----7-------11---9---7---|
|------------------------------|---7-7---7-7---7-7-7----7---7---7-|
|------------------------------|----------------------------------|
|4-4-4-4-6-6-6-7-7-7-7-7-6-6-6-|----------------------------------|

|------------------------------|-----------------|-----------|
|------------------------------|-----------------|--------10-|
|------------------------------|-----------------|-----------|
|------------------------------|0-6-7-0-7-11-0-7-|0-7-9-0----|
|------------------------------|-----------------|-----------|
|4-4-4-4-6-6-6-7-7-7-7-7-6-6-6-|-----------------|-----------|

Part after Solo - Matt

|------------------------------|----------------------------------|
|------------------------------|10-----9-----7-------10---9---7---|
|------------------------------|----------------------------------|
|------------------------------|---7-7---7-7---7-7-7----7---7---7-|
|------------------------------|----------------------------------|
|4-4-4-4-6-6-6-7-7-7-7-7-6-6-6-|----------------------------------|

|------------------------------|-----------------|-----------|
|------------------------------|-----------------|-----------|
|------------------------------|-----------------|-----------|
|------------------------------|-----------------|--------11-|
|------------------------------|-----------------|-----------|
|4-4-4-4-6-6-6-7-7-7-7-7-6-6-6-|0-6-7-0-7-11-0-7-|0-7-9-0----|

Final bit before last Pre Chorus - Cory

|---------------|-------------|-----------------------------------------|
|---------------|-------------|-----------------------------------------|
|---------------|-------------|-----------------------------------------|
|------11------9|------7------|12-11-9----11-9-------9------------------|
|9-7-9-----9-7--|9-7-9---9-7-9|--------12------12-11---12-11-9-12-11-9-7|
|---------------|-------------|-----------------------------------------|

Final bit before last Pre Chorus - Matt

|---------------|-------------|------------------------------------|
|---------------|-------------|------------------------------------|
|------9-------7|------6------|11-9-7----9-7------7----------------|
|7-6-7-----7-6--|7-6-7---7-6-7|-------11-----11-9---11-9-7-11-9-7-6|
|---------------|-------------|------------------------------------|
|---------------|-------------|------------------------------------|

Now repeat the Pre Chorus and the Chorus.

Both Guitars end on...

|---|
|---|
|-6-|
|-7-|
|-4-|
|-0-|

Enjoy People.
Suggest correction
comments
print report bad tab
4 comments total. Showing first comments.
0 reply
Majin Gaara 1,122 wrote on January 6 2007, 12:29 am

Wow this tab is way off dude.

0 reply
/-Vince-\ 224 wrote on February 14 2007, 01:53 pm

Wow You are WAY OFF Majin... This tab is great

0 reply
crazydrivr 93 wrote on March 13 2007, 10:37 pm

This tab is pretty good, but the solo is wrong I believe, plus it is almost, if not, the same solo tab from the solo tab for this song, which is wrong. It starts on the bottom e string, even though when played fast it sounds good

guest
You may want to rate the tab now too:
select rating
Please do not post tabs as comments. Select "correction" instead!