Oops, an error
Loading. Please wait.

Ashes Tab

version 4
version 4

Whole song

Interactive

3,429 views 3 this week
no commentswrite comment
1 2 3 4 5
1 last vote to show rating
add to favorites
launch autoscroll
font size
0
reset
how to read this tab
guitar tuner
Autoscroll
slow
fast
+/-
esc
set tempo
stop
Help us to improve Ultimate-Guitar.com Take our survey!
×
Author
Difficulty
-------------------------------------------------------------------------------
                             ASHES - Trivium
-------------------------------------------------------------------------------
Tabbed by: GuitarHero_JP
Email: j.proudlove@hotmail.co.uk

Guitar I, Matt Heafy: e B G D A E
Guitar II, Matt Heafy: e B G D A E

Q=74

Part I 4/4
Guitar I
  E E E E E E E  S S   E E E E E E E E   E E E E E E E E   E E E E E E E E
|--------------------|-----------3-2-3-|-----------------|-----------------|
|*----3-------3-—3h5-|-3---3-----------|-----------------|----------------*|
|---0---0---0--------|-----------------|---------4---4---|-----0-------0---|
|-2-------2----------|---2---2---------|-4-5---4---7---7-|-5-4---4-5-7---7-|
|*-------------------|-3-------3-------|-----5-----------|----------------*|
|--------------------|-----------------|-----------------|-----------------| x2
|
|
|Guitar II
| E E E E E E Q         Q.   Q   E  E E   E E Q  Q.  E     E E E E E E E E
|-----7-------7------|-10----8---7------|----------------|-----0-------0---|
|*7-8---8-7-8--------|-------------10-8-|-7-8----8-------|---3-------7---7*|
|--------------------|------------------|-----7------7---|-7-----7-9-------|
|--------------------|------------------|----------------|-----------------|
|*-------------------|------------------|----------------|----------------*|
|--------------------|------------------|----------------|-----------------| x2

                                                            ________________
Part II                                                    |1.
Guitar I
  E E E E E E E  S S   E E E E E E E E   E E E E E E E E    E E Q    H
|--------------------|-----------7-6-7-|------------------|-----------------|
|-----7-------7—-7h9-|-7---7-----------|------------------|-----------------|
|---8---8-6-8--------|-----------------|-----8-----8------|-----------------|
|-6------------------|---6---6---------|---5-----5-----5--|-----------------|
|--------------------|-7-------7-------|-6-----6-----6----|---6-4-----------|
|--------------------|-----------------|------------------|-4--------4------|
|
|
|Guitar II
|  E  E  E  E  E  E  E  E    Q.    Q    E  E  E    E  E  E  E  E  E  E  E
|-------11----------11----|-14----12---11-------|-------------11----------|
|-11-12----12-11-12----12-|---------------14-12-|-11-12-11-------11----11-|
|-------------------------|---------------------|----------12-------12----|
|-------------------------|---------------------|-------------------------|
|-------------------------|---------------------|-------------------------|
|-------------------------|---------------------|-------------------------|

 _______________
|1.
----------------|
-------9-9------|
-----8----------|
-6-6------------|
----------------|
----------------|

 _________________
|2.
Guitar I
  E E Q    H
|-----------------|
|-----------------|
|-----------------|
|-----------------|
|---6-4-----------|
|-4--------4\__---|
|
|
|Guitar II
| E E E E H
|----------------|
|-------9-9\__---|
|-----8----------|
|-6-6------------|
|----------------|
|----------------|

| /  slide up
| \  slide down
| h  hammer-on
| p  pull-off
| ~  vibrato
| +  harmonic
| x  Mute note
| \__ Whammy Bar Dive
===============================================================================
Suggest correction
Give kudos to tab author, rate the tab!
1 2 3 4 5
comments
print report bad tab
guest
You may want to rate the tab now too:
select rating
Wanna post a correction for this tab? Suggest correction