Oops, an error
Loading. Please wait.

Becoming The Dragon bass

version 1
version 1

Whole song

Interactive

by Trivium
3,371 views 1 this week
6 commentsread comments
1 2 3 4 5
x 7
add to favorites
×
Save as Personal and add changes to this tab that will be seen only by you. Learn more ›
×
You can save this tab as Personal to edit and correct it or add notes. All changes will be seen only by you. Learn more »
launch autoscroll
font size
0
reset
guitar tuner
edit
Autoscroll
slow
fast
+/-
esc
set tempo
stop
Author
Difficulty
Artist: Trivium
Song: Becoming the Dragon
Album: The Crusade
Tuning: Standard (low to high: EADG)

please rate and comment. have fun!   :)

Intro
G|--------------------------|
D|--------------------------|
A|-(7)----(6)----(7)----(6)-|
E|--------------------------| 1x

Main Riff
G|----------------------------------------------------------------|
D|----------------------------------------------------------------|
A|-7----8------7---6----------3-2-7----8------7---6----------9-10-|
E|---00---0000---0---00000000-------00---0000---0---00000000------| 4x

Pre-Chorus
G|-------------------------------------|
D|-------------------------------------|
A|-------------------------------------|
E|-77777777-55555555-33333333-22222222-| 1x

Chorus
G|--------------------------------|
D|--------------------------------|
A|--------------------------------|
E|-0000--0-2--0000--3-2-2222-2222-| 2x

Main Riff 2x
Pre-Chorus 1x
Chorus 2x

Bridge
G|-----------------------------------------|
D|-----------------------------------------|
A|-----------------------------------------|
E|-0000-0000-0000-0000-0000-0000-0000-0000-|

G|-------------------------------55-44-|
D|-------------------00-22-33-22-------|
A|----------00-22-33-------------------|
E|-00-22-33----------------------------| 

G|-----------------------------------------|
D|-----------------------------------------|
A|-----------------------------------------|
E|-0000-0000-0000-0000-0000-0000-0000-0000-|

G|-------------------------------55-44-|
D|-------------------00-22-33-22-------|
A|----------00-22-33-------------------|
E|-00-22-33----------------------------|

G|---------------------------------------|
D|---------------------------------------|
A|-------------------------------0-1-0-2-|
E|-00-2-00-3-00-2-00-3-00-2-00-3---------|

G|-------------------------------55-44-|
D|-------------------00-22-33-22-------|
A|----------00-22-33-------------------|
E|-00-22-33----------------------------| 

G|-----------------------------------------|
D|-----------------------------------------|
A|-----------------------------------------|
E|-0000-0000-0000-0000-0000-0000-0000-0000-|

G|-------------------------------55-44-|
D|-------------------00-22-33-22-------|
A|----------00-22-33-------------------|
E|-00-22-33----------------------------|

G|---------------------------------------|
D|---------------------------------------|
A|-------------------------------0-1-0-2-|
E|-00-2-00-3-00-2-00-3-00-2-00-3---------| 4x

G|--------------------------------------|
D|--------------------------------------|
A|--------------------------------------|
E|-00-2-00-3-00-2-00-3-00-2-00-3-00-4-5-| 4x

G|---------------------------------------|
D|---------------------------------------|
A|-------------------------------0-1-0-2-|
E|-00-2-00-3-00-2-00-3-00-2-00-3---------|

G|----------------|
D|----------------|
A|----------------|
E|-10-9-7-12-10-9-|

Main Riff 4x
Pre-Chorus 2x
Chorus 2x

Pre-Outro
G|---------------------------------------------------|
D|---------------------------------------------------|
A|---------------------------------------------------|
E|-(0)---------------------------0-0-0-0-0-0-0-0-0-0-|

Outro Riff
G|-------------------------------------------------------------|
D|-------------------------------------------------------------|
A|-------------------------------------------------------------|
E|-0-0-0-0-1-0-0-0-0-5-5-0-0-4-4-0-0-0-0-2-0-0-0-0-4-4-0-0-3-3-|
(play outro riff for rest of song, at the end, begin to fade out)

End

Key
( ) - let ring




            
            
Suggest correction
Creating personal tab
Creating personal tab
You can edit any tab online and save it as your Personal.

You can edit, replace or remove any tab part or add personal notes – all changes will be seen only by you.

Personal tabs can be accessed anytime from any device, even offline.
Learn more »
comments
print report bad tab
6 comments total. Showing first comments.
0 reply
shugo449 530 Jan 16, 2007 03:33 AM

sweet... front page too! i think its pretty good 5*

0 reply
OutlawMusician 20 Apr 02, 2007 09:53 AM

Doesn't this have a bass solo at the end somewhere around 3:44

0 reply
Td_Nights 186 Jun 16, 2007 09:28 AM

Yes,this does have a bass solo at the end.

guest
You may want to rate the tab now too:
select rating
Wanna post a correction for this tab? Suggest correction