Oops, an error
Loading. Please wait.

Becoming The Dragon solo bass

version 1
version 1

Solo

Whole song

Interactive

by Trivium
7,981 views 9 this week
7 commentsread comments
1 2 3 4 5
x 3
add to favorites
×
Save as Personal and add changes to this tab that will be seen only by you. Learn more ›
×
You can save this tab as Personal to edit and correct it or add notes. All changes will be seen only by you. Learn more »
launch autoscroll
font size
0
reset
guitar tuner
edit
Autoscroll
slow
fast
+/-
esc
set tempo
stop
Author
Difficulty
Use Wah and it sounds right, any corrections feel free to email me at 
Please rate and comment.

I play it in this Vid.

http://www.youtube.com/watch?v=eouiNQnZ1_0


   T        T        T        T        T        T        T        T
|-14-11-12-14-11-12-14-11-12-14-11-12-14-11-12-14-11-12-14-11-12-14-11-12---------------------|
|---------------------------------------------------------------------------------------------|
|---------------------------------------------------------------------------------------------|
|---------------------------------------------------------------------------------------------|
|---------------------------------------------------------------------------------------------|
   T        T        T        T        T        T        T        T
|-14-11-12-14-11-12-14-11-12-14-11-12-16-11-12-14-11-12-16-11-12-14-11-12---------------------|
|---------------------------------------------------------------------------------------------|
|---------------------------------------------------------------------------------------------|
|---------------------------------------------------------------------------------------------|
|---------------------------------------------------------------------------------------------|
   T        T        T        T        T        T        T        T
|-17-12-14-16-12-14-16-12-14-16-12-14-16-12-14-16-12-14-16-12-14-16-12-14---------------------|
|---------------------------------------------------------------------------------------------|
|---------------------------------------------------------------------------------------------|
|---------------------------------------------------------------------------------------------|
|---------------------------------------------------------------------------------------------|
   T        T        T        T        T        T        T        T
|-17-12-14-19-12-14-17-12-14-16-12-14-17-12-14-17-12-14-16-12-14-17-12-14---------------------|
|---------------------------------------------------------------------------------------------|
|---------------------------------------------------------------------------------------------|
|---------------------------------------------------------------------------------------------|
|---------------------------------------------------------------------------------------------|
   T        T        T        T        T        T        T        T
|-14-11-12-14-11-12-14-11-12-14-11-12-16-11-12-14-11-12-16-11-12-14-11-12---------------------|
|---------------------------------------------------------------------------------------------|
|---------------------------------------------------------------------------------------------|
|---------------------------------------------------------------------------------------------|
|---------------------------------------------------------------------------------------------|
   T        T        T        T        T        T        T        T
|-16-11-12-17-11-12-16-11-12-14-11-12-16-11-12-17-11-12-19-11-12-14---------------------------|
|---------------------------------------------------------------------------------------------|
|---------------------------------------------------------------------------------------------|
|---------------------------------------------------------------------------------------------|
|---------------------------------------------------------------------------------------------|

|------16----------------------------14-------16----17-------14-16----------------------------|
|-/14------14-16-17-16-14-16---14-16----16-14----14----14-16----------------------------------|
|---------------------------------------------------------------------------------------------|
|---------------------------------------------------------------------------------------------|
|---------------------------------------------------------------------------------------------|

|------14-------------------------------------------------------------------------------------|
|-/16---16-14-16-14-13-13-14-16---16---13-14-16--13-14-16-13-14-16-13-14-16-13-14-16-13-14-16-|
|---------------------------------------------------------------------------------------------|
|---------------------------------------------------------------------------------------------|
|---------------------------------------------------------------------------------------------|

|---------------------------------------------16----------------------------------------------|
|-17-16-14-H16P14--14-16-17-16-14-H16P14--/14----14-14-13-13-13-13-14-14-16-16----------------|
|---------------------------------------------------------------------------------------------|
|---------------------------------------------------------------------------------------------|
|---------------------------------------------------------------------------------------------|

|-----16---17---------------------------16----17----16----------------------------------------|
|-/14---14----14-14-13-13-13-14-16--/14----14----14----14-13-13-13-13-------------------------|
|---------------------------------------------------------------------------------------------|
|---------------------------------------------------------------------------------------------|
|---------------------------------------------------------------------------------------------|

|-----16----17----16----------------4-5-4-2-4-5-4-2-5-7-5-7-9-9-------------------------------|
|-/14----14----14----16-16-17-17--------------------------------------------------------------|
|---------------------------------------------------------------------------------------------|
|---------------------------------------------------------------------------------------------|
|---------------------------------------------------------------------------------------------|

|---------------------------------------------------------------------------------------------|
|-/16-16--13-14-16--13-14-16-13-14-16-13-14-16-16^-16^^-16^^^-16^=17--------------------------|
|---------------------------------------------------------------------------------------------|
|---------------------------------------------------------------------------------------------|
|---------------------------------------------------------------------------------------------|

Legend:

H : Hammer On
P : Pull Off
T : Tap
/ : Slide from below
^ : One Fourth Bend (^^ : Half ect.)
^= : Bend to note specified.

            
            
Suggest correction
Creating personal tab
Creating personal tab
You can edit any tab online and save it as your Personal.

You can edit, replace or remove any tab part or add personal notes – all changes will be seen only by you.

Personal tabs can be accessed anytime from any device, even offline.
Learn more »
Give kudos to tab author, rate the tab!
1 2 3 4 5
comments
print report bad tab
7 comments total. Showing first comments.
-1 reply
iplay4luv 41 Jan 10, 2008 10:39 AM

tuning?

+2 reply
pyrobonez 87 Jan 10, 2008 08:47 PM

Standard, like the rest of the album. B,E,A,D,G.

-2 reply
bassplaya53 3,071 Jan 11, 2008 05:48 PM

does this go behind the guitar solo or is it an actual bass solo in the song?

guest
You may want to rate the tab now too:
select rating
Wanna post a correction for this tab? Suggest correction