Oops, an error
Loading. Please wait.

Becoming The Dragon Tab

version 1
version 1

Solo

Whole song

Interactive

4,665 views 1 this week
9 commentsread comments
1 2 3 4 5
x 6
add to favorites
launch autoscroll
font size
0
reset
how to read this tab
guitar tuner
×
Best way to learn
"Becoming The Dragon"
Autoscroll
slow
fast
+/-
esc
set tempo
stop
Author
Difficulty
  follow
advanced
if it dont look right, copy and paste it into notepad


Im not too sure on the note lenghts, ie sixteenths etc, but other that that i think its 
for the tapping part
 corey uses his pick instead of his finger, this video here, of me playing it shows
thishttp://www.youtube.com/watch?v=NUYh9IB9A1U

      S  S  S  S  S H          S  S  S     S  S  H          S  S  S  S  S  S
E||------------------------------------|-------------------------------------|
B||------------------------------------|-------------------------------------|
G||--------11-12-11-9~--------------12-|--14-12-11~--------------14-16-14-12-|
D||--14-14--------------------14-14----|-------------------16-16-------------|
A||------------------------------------|-------------------------------------|
E||------------------------------------|-------------------------------------|


   S  S  S  S  S  S  S  S  S  S  S  S  H
-------------------------------------------------|
-------------------------------------------------|
--14-12----12------------------------------------|
--------16----16-14-16-14-12-14-12----14~--------|
-----------------------------------14------------|
-------------------------------------------------|


   T           T        T           T        T           T        T          T
   T  T  T  T  T  T  T  T  T  T  T  T  T  T  T  T  T  T  T  T  T  T  T T  T  T
--15-14-12-14-15-14-12-----------------------------------------------------------|
-----------------------15-14-12-14-15-14-12--------------------------------------|
--------------------------------------------14-12-11-12-14-12-11-12-11-9-11-12-1-|
---------------------------------------------------------------------------------|
---------------------------------------------------------------------------------|
---------------------------------------------------------------------------------|


   T       T          T
   T  T T  T  T T  T  T  T T Q      T  T  T  T  T  T  T  T  T  T  T  T  T  T
-----------------------------------------------------------------------------|
-----------------------------------------------------------------------------|
-----------------------------------------------------------------------------|
--12-10-9--------------------------------------------------------------------|
----------12-10-9-10-12-10-9-7~-------------12----------------12-14-15-14-15-|
-----------------------------------12-14-15----15-14-12-14-15----------------|


   T  T  T  T  T  T  T  T  T  T  T  T  T  T  T  T  T  T  T  T  T  T  H
-------------------------------------------------------------------------------|
-------------------------------------------------------------------------------|
-----------------------------------------14----------------14-16-17-16~--------|
-----14----------------14-16-17-14-16-17----17-16-14-16-17---------------------|
--17----17-15-14-15-17---------------------------------------------------------|
-------------------------------------------------------------------------------|


   T  T  T  T  T  T  T  T  T  T  T  T  T  T  T  T  T  T  T  T  T  T  T  T  T  T
--------------------------------------------------------------------------------|
--------------------------------------------------------------------------------|
--------------------------------------------------------------------------------|
-----------------------------------------------14----------------14-16-17-14-16-|
-----------12----------------12-14-15-14-15-17----17-15-14-15-17----------------|
--12-14-15----15-14-12-14-15----------------------------------------------------|


   T  T  T  H          T  T  T  T  T  T  T  T  T  T  T  T  T
-------------------------------------------------------------|
-------------------------------------------------------------|
-----14-14-16~-----------------14----------------14-16-17-16-|
--17------------------14-16-17----17-16-14-16-17-------------|
-------------------------------------------------------------|
-------------------------------------------------------------|


   T  T  T  T  T  T  T  T  T  T  T  T  T  T  T  T  T  T  T  T  T  T  H
--------------------------------------------15----------------15-17-19~--------|
--------17----------------15-17-19-15-17-19----19-17-15-17-19------------------|
--17-19----19-17-16-17-19------------------------------------------------------|
-------------------------------------------------------------------------------|
-------------------------------------------------------------------------------|
-------------------------------------------------------------------------------|


   T   T  T  T  T  T  T  T  T  T  H
--19h-19-19-19-15---------------------------|
------------------17------------------------|
---------------------16---------------------|
------------------------17------------------|
---------------------------19---------------|
------------------------------19-12~--------|


   E   E   E   Q      T  T  T  T  T  T  T  T  T  T  T  T
---------------------------------------------------------|
---------------------------------------------------------|
---------------------12-11----------12-11----------12-11-|
---------------------------14-12-14-------14-12-14-------|
--17--16--14--12~----------------------------------------|
---------------------------------------------------------|


   T  T  T  T  T  T  T  T  E   E   E   E   E   E      Q
--------------------------------------------------|---------||
--------------------------------------------------|---------||
-----------12-11----------16--14--12--------------|---------||
--14-12-14-------14-12-14-------------16--14--12--|--13~----||
--------------------------------------------------|---------||
--------------------------------------------------|---------||


Duration Legend
---------------
W - whole
H - half
Q - quarter
E - 8th
S - 16th
T - 32nd
X - 64th
. - note dotted
|-n-|  - n-tuplets


Tablature Legend
----------------
L - tied note
x - dead note
g - grace note
(n) - ghost note
> - accentuded note
NH - natural harmonic
AH - artificial harmonic
TH - tapped harmonic
SH - semi harmonic
PH - pitch harmonic
h - hammer on
p - pull off
b - bend
br - bendRelease
pb - preBend
pbr - preBendRelease
brb - bendReleaseBend
\n/ - tremolo bar dip
\n - tremolo bar dive
-/n - tremolo bar Release up
/n\ - tremolo bar inverted dip
/n - tremolo bar return
-\n - tremolo bar Release down
S - shift slide
s - legato slide
/ -  slide into from below or out of upwards
\ -  slide into from above or out of downwards
~ - vibrato
W - wide vibrato
tr - trill
TP - tremolo picking
T - tapping
S - slap
P - pop
< - fade in
^ - brush up
v - brush down
Suggest correction
comments
print report bad tab
9 comments total. Showing first comments.
0 reply
Lukige 1,637 Dec 23, 2006 12:59 AM

Fantastic playing mate! 2 thumbs up to you. You wouldn't want to put a 'good' tab up of the whole song now would you? It deserves a quality tab

0 reply
richwatkinson 20 Dec 23, 2006 01:03 AM

This solo is awesome, great job. that video is fantastic =]

0 reply
Newby99 22 Dec 23, 2006 01:10 AM

i would try and tab the whole song put i dont have a 7 string guitar, im working on the last solo, ive more or less got it, just need to perfect it a bit, shud be up soon

guest
You may want to rate the tab now too:
select rating
Wanna post a correction for this tab? Suggest correction