Oops, an error
Loading. Please wait.

Becoming The Dragon bass

version 2
version 2

Whole song

Interactive

by Trivium
4,314 views 6 this week
4 commentsread comments
1 2 3 4 5
x 6
add to favorites
×
Save as Personal and add changes to this tab that will be seen only by you. Learn more ›
×
You can save this tab as Personal to edit and correct it or add notes. All changes will be seen only by you. Learn more »
launch autoscroll
font size
0
reset
guitar tuner
edit
Autoscroll
slow
fast
+/-
esc
set tempo
stop
Author
Most of this is not original, but just parts that were right from the original and the 
that I put together. The only thing that's been changed is part of the bridge.
So now the solo and the rest of the piece is all in one nice little package :]


Intro
G|--------------------------|
D|--------------------------|
A|-(7)----(6)----(7)----(6)-|
E|--------------------------| 1x
B|--------------------------|

Main Riff
G|----------------------------------------------------------------|
D|----------------------------------------------------------------|
A|-7----8------7---6----------3-2-7----8------7---6----------9-10-|
E|---00---0000---0---00000000-------00---0000---0---00000000------| 4x
B|----------------------------------------------------------------|

Pre-Chorus
G|-------------------------------------|
D|-------------------------------------|
A|-------------------------------------|
E|-77777777-55555555-33333333-22222222-| 1x
B|-------------------------------------|

Chorus
G|--------------------------------|
D|--------------------------------|
A|--------------------------------|
E|-0000--0-2--0000--3-2-2222-2222-| 2x
B|--------------------------------|

Main Riff 2x
Pre-Chorus 1x
Chorus 2x

Bridge
G|-----------------------------------------|
D|-----------------------------------------|
A|-----------------------------------------|
E|-0000-0000-0000-0000-0000-0000-0000-0000-|
B|-----------------------------------------|

G|-------------------------------55-44-|
D|-------------------00-22-33-22-------|
A|----------00-22-33-------------------|
E|-00-22-33----------------------------|
B|-------------------------------------|

G|-----------------------------------------|
D|-----------------------------------------|
A|-----------------------------------------|
E|-0000-0000-0000-0000-0000-0000-0000-0000-|
B|-----------------------------------------|

G|-------------------------------55-44-|
D|-------------------00-22-33-22-------|
A|----------00-22-33-------------------|
E|-00-22-33----------------------------|
B|-------------------------------------|

G|---------------------------------------|
D|---------------------------------------|
A|---------------------------------------|
E|---------------------------------------|
B|-700800700800700800700800-10-12--------|

G|-------------------------------55-44-|
D|-------------------00-22-33-22-------|
A|----------00-22-33-------------------|
E|-00-22-33----------------------------|
B|-------------------------------------|

G|-----------------------------------------|
D|-----------------------------------------|
A|-----------------------------------------|
E|-0000-0000-0000-0000-0000-0000-0000-0000-|
B|-----------------------------------------|

G|-------------------------------55-44-|
D|-------------------00-22-33-22-------|
A|----------00-22-33-------------------|
E|-00-22-33----------------------------|
B|-------------------------------------|

G|-----------------------------------------------------------------|
D|-----------------------------------------------------------------|
A|-----------------------------------------------------------------|
E|-----------------------------------------------------------------| 9x
B|--700800700800700800700800-10-12----700800700800700800700800-3-4-|

G|----------------|
D|----------------|
A|----------------|
E|-10-9-7-12-10-9-|
B|----------------|

Main Riff 4x
Pre-Chorus 2x
Chorus 2x

Pre-Outro
G|---------------------------------------------------|
D|---------------------------------------------------|
A|---------------------------------------------------|
E|-(0)---------------------------0-0-0-0-0-0-0-0-0-0-|
B|---------------------------------------------------|

Outro Riff
G|-------------------------------------------------------------|
D|-------------------------------------------------------------|
A|-------------------------------------------------------------|
E|-0-0-0-0-1-0-0-0-0-5-5-0-0-4-4-0-0-0-0-2-0-0-0-0-4-4-0-0-3-3-|
B|-------------------------------------------------------------|

(Bass Solo Starting at the end of 3:43)
   T        T        T        T        T        T        T        T
G|-14-11-12-14-11-12-14-11-12-14-11-12-14-11-12-14-11-12-14-11-12-14-11-12---------------------|
D|---------------------------------------------------------------------------------------------|
A|---------------------------------------------------------------------------------------------|
E|---------------------------------------------------------------------------------------------|
B|---------------------------------------------------------------------------------------------|
   T        T        T        T        T        T        T        T
G|-14-11-12-14-11-12-14-11-12-14-11-12-16-11-12-14-11-12-16-11-12-14-11-12---------------------|
D|---------------------------------------------------------------------------------------------|
A|---------------------------------------------------------------------------------------------|
E|---------------------------------------------------------------------------------------------|
B|---------------------------------------------------------------------------------------------|
   T        T        T        T        T        T        T        T
G|-17-12-14-16-12-14-16-12-14-16-12-14-16-12-14-16-12-14-16-12-14-16-12-14---------------------|
D|---------------------------------------------------------------------------------------------|
A|---------------------------------------------------------------------------------------------|
E|---------------------------------------------------------------------------------------------|
B|---------------------------------------------------------------------------------------------|
   T        T        T        T        T        T        T        T
G|-17-12-14-19-12-14-17-12-14-16-12-14-17-12-14-17-12-14-16-12-14-17-12-14---------------------|
D|---------------------------------------------------------------------------------------------|
A|---------------------------------------------------------------------------------------------|
E|---------------------------------------------------------------------------------------------|
B|---------------------------------------------------------------------------------------------|
   T        T        T        T        T        T        T        T
G|-14-11-12-14-11-12-14-11-12-14-11-12-16-11-12-14-11-12-16-11-12-14-11-12---------------------|
D|---------------------------------------------------------------------------------------------|
A|---------------------------------------------------------------------------------------------|
E|---------------------------------------------------------------------------------------------|
B|---------------------------------------------------------------------------------------------|
   T        T        T        T        T        T        T        T
G|-16-11-12-17-11-12-16-11-12-14-11-12-16-11-12-17-11-12-19-11-12-14---------------------------|
D|---------------------------------------------------------------------------------------------|
A|---------------------------------------------------------------------------------------------|
E|---------------------------------------------------------------------------------------------|
B|---------------------------------------------------------------------------------------------|

G|------16----------------------------14-------16----17-------14-16----------------------------|
D|-/14------14-16-17-16-14-16---14-16----16-14----14----14-16----------------------------------|
A|---------------------------------------------------------------------------------------------|
E|---------------------------------------------------------------------------------------------|
B|---------------------------------------------------------------------------------------------|

G|------14-------------------------------------------------------------------------------------|
D|-/16---16-14-16-14-13-13-14-16---16---13-14-16--13-14-16-13-14-16-13-14-16-13-14-16-13-14-16-|
A|---------------------------------------------------------------------------------------------|
E|---------------------------------------------------------------------------------------------|
B|---------------------------------------------------------------------------------------------|

G|---------------------------------------------16----------------------------------------------|
D|-17-16-14-H16P14--14-16-17-16-14-H16P14--/14----14-14-13-13-13-13-14-14-16-16----------------|
A|---------------------------------------------------------------------------------------------|
E|---------------------------------------------------------------------------------------------|
B|---------------------------------------------------------------------------------------------|

G|-----16---17---------------------------16----17----16----------------------------------------|
D|-/14---14----14-14-13-13-13-14-16--/14----14----14----14-13-13-13-13-------------------------|
A|---------------------------------------------------------------------------------------------|
E|---------------------------------------------------------------------------------------------|
B|---------------------------------------------------------------------------------------------|

G|-----16----17----16----------------4-5-4-2-4-5-4-2-5-7-5-7-9-9-------------------------------|
D|-/14----14----14----16-16-17-17--------------------------------------------------------------|
A|---------------------------------------------------------------------------------------------|
E|---------------------------------------------------------------------------------------------|
B|---------------------------------------------------------------------------------------------|

G|---------------------------------------------------------------------------------------------|
D|-/16-16--13-14-16--13-14-16-13-14-16-13-14-16-16^-16^^-16^^^-16^=17--------------------------|
A|---------------------------------------------------------------------------------------------|
E|---------------------------------------------------------------------------------------------|
B|---------------------------------------------------------------------------------------------|

Legend:

H : Hammer On
P : Pull Off
T : Tap
/ : Slide from below
^ : One Fourth Bend (^^ : Half ect.)
^= : Bend to note specified.
Suggest correction
Creating personal tab
Creating personal tab
You can edit any tab online and save it as your Personal.

You can edit, replace or remove any tab part or add personal notes – all changes will be seen only by you.

Personal tabs can be accessed anytime from any device, even offline.
Learn more »
comments
print report bad tab
4 comments total. Showing first comments.
-1 reply
pyrobonez 87 Jan 17, 2008 05:41 PM

Son of a bitch! Stole the solo, huh?

-1 reply
dentrix 40 Apr 05, 2008 04:53 AM

Other than being blatantly plagiarised, good tab

-1 reply
isaachary 51 Jul 24, 2008 01:43 PM

At the beginning I said that almost none of it was original. I just wanted to put both of the tabs together into one.

guest
You may want to rate the tab now too:
select rating
Wanna post a correction for this tab? Suggest correction