Oops, an error
Loading. Please wait.

Becoming The Dragon tab

version 2
version 2

Whole song

Interactive

by Trivium
11,463 views 3 this week
13 commentsread comments
1 2 3 4 5
x 9
add to favorites
×
Save as Personal and add changes to this tab that will be seen only by you. Learn more ›
×
You can save this tab as Personal to edit and correct it or add notes. All changes will be seen only by you. Learn more »
launch autoscroll
font size
0
reset
how to read this tab
guitar tuner
edit
Autoscroll
slow
fast
+/-
esc
set tempo
stop
Author
STOP. Before you say anything, i know it's supposed to be on a 7-string, you don't have
to tell me that yourself. Thing is most of us dont have that extra string, which includes me.
So for those of us, i present you this. It's most likely not 100% correct, but it's playable
in your spare time. Also, thanks heaps to Newby99 for the solo which is more or less right 
;)
Anyway, hope you enjoy this.

* - Palm Mute
# - Heavy palm mute
tr - trill

Intro - Guitar 1
|-------------------------------------------------------------------|
|-------------------------------------------------------------------|
|-9~---8~----9~----8~-----------------------------------------------|
|-9~---8~----9~----8~-----------------------------------------------|
|-7~---6~----7~----6~-----------------------------------------------|
|-------------------------------------------------------------------|

Intro - Guitar 2 (played throughout solo)
|--------------------------------------------------|
|--------------------------------------------------|
|--------------------------------------------------|
|-9-------10--------9---8-------------------5--4---|
|-7-------8---------7---6-------------------3--2---|
|---0-0-----0-0-0-----0----0-0-0-0-0-0-0-0---------|
    * *     * * *     *    * * * * * * * *

|----------------------------------------------------|
|----------------------------------------------------|
|----------------------------------------------------|
|-9-------10--------9---8-------------------11--12---|
|-7-------8---------7---6-------------------9---10---|
|---0-0-----0-0-0-----0----0-0-0-0-0-0-0-0-----------|
    * *     * * *     *    * * * * * * * *

Solo - Guitar 1
    S  S  S  S  S H          S  S  S     S  S  H          S  S  S  S  S  S
|------------------------------------|-------------------------------------|
|------------------------------------|-------------------------------------|
|--------11-12-11-9~--------------12-|--14-12-11~--------------14-16-14-12-|
|--14-14--------------------14-14----|-------------------16-16-------------|
|------------------------------------|-------------------------------------|
|------------------------------------|-------------------------------------|
   *  *                     *  *                         *  *

   S  S  S  S  S  S  S  S  S  S  S  S  H
|-------------------------------------------------|
|-------------------------------------------------|
|--14-12----12------------------------------------|
|--------16----16-14-16-14-12-14-12----14~--------|
|-----------------------------------14------------|
|-------------------------------------------------|


   T           T        T           T        T           T        T          T
   T  T  T  T  T  T  T  T  T  T  T  T  T  T  T  T  T  T  T  T  T  T  T T  T  T
|--15-14-12-14-15-14-12-----------------------------------------------------------|
|-----------------------15-14-12-14-15-14-12--------------------------------------|
|--------------------------------------------14-12-11-12-14-12-11-12-11-9-11-12-1-|
|---------------------------------------------------------------------------------|
|---------------------------------------------------------------------------------|
|---------------------------------------------------------------------------------|


   T       T          T
   T  T T  T  T T  T  T  T T Q      T  T  T  T  T  T  T  T  T  T  T  T  T  T
|-----------------------------------------------------------------------------|
|-----------------------------------------------------------------------------|
|-----------------------------------------------------------------------------|
|--12-10-9--------------------------------------------------------------------|
|----------12-10-9-10-12-10-9-7~-------------12----------------12-14-15-14-15-|
|-----------------------------------12-14-15----15-14-12-14-15----------------|


   T  T  T  T  T  T  T  T  T  T  T  T  T  T  T  T  T  T  T  T  T  T  H
|-------------------------------------------------------------------------------|
|-------------------------------------------------------------------------------|
|-----------------------------------------14----------------14-16-17-16~--------|
|-----14----------------14-16-17-14-16-17----17-16-14-16-17---------------------|
|--17----17-15-14-15-17---------------------------------------------------------|
|-------------------------------------------------------------------------------|

Verse - Guitar 1
|--------------------------------------------------|
|--------------------------------------------------|
|--------------------------------------------------|
|-9-------10--------9---8-------------------5--4---|
|-7-------8---------7---6-------------------3--2---|
|---0-0-----0-0-0-----0----0-0-0-0-0-0-0-0---------|
    * *     * * *     *    * * * * * * * *

|----------------------------------------------------|
|----------------------------------------------------|
|----------------------------------------------------|
|-9-------10--------9---8-------------------11--12---|
|-7-------8---------7---6-------------------9---10---|
|---0-0-----0-0-0-----0----0-0-0-0-0-0-0-0-----------|
    * *     * * *     *    * * * * * * * *

Prechorus - Guitars 1 & 2
|----------------------------------------------------------|
|----------------------------------------------------------|
|----------------------------------------------------------|
|-9-9-9-9-9-9--7-7-7-7-7-7--5-5-5-5-5-5--3-3-3-3-3-3-------|
|-9-9-9-9-9-9--7-7-7-7-7-7--5-5-5-5-5-5--3-3-3-3-3-3-------|
|-7-7-7-7-7-7--5-5-5-5-5-5--3-3-3-3-3-3--1-1-1-1-1-1-------|
  *   *   *    *   *   *    *   *   *    *   *   *

Chorus:

|------------------------------------------------------------|
|------------------------------------------------------------|
|------------------------------------------------------------|
|-------2~------4~---------2~---5----------------------------|
|-2-2-2-2~---2--2~---2-2-2-2~---5--2~--2-2-2-2~--2-2-2-------|
|-0-0-0-0~---0--2~---0-0-0-0~---3--2~--2-2-2-2~--2-2-2-------|
  * * *              * * *             * * *     * * *

( 7-string Version                                               )
(e|------------------------------------------------------------| )
(B|------------------------------------------------------------| )
(G|------------------------------------------------------------| )
(D|-------2~------4~---------2~---5----------------------------| )
(A|-2-2-2-2~---2--2~---2-2-2-2~---5----------------------------| )
(E|-0-0-0-0~---0--2~---0-0-0-0~---3--2~--2-2-2-2~--2-2-2-------| )
(B|----------------------------------0~--0-0-0-0~--0-0-0-------| )
    * * *              * * *             * * *     * * *

Verse x2
Prechorus
chorus x2

Bridge - Guitars 1 & 2
|-------------------------------------------------|
|-------------------------------------------------|
|-------------------------------------------------|
|-------------------------------------------------|
|-2222--2222--2222--2222--2222--2222--2222--2222--|
|-2222--2222--2222--2222--2222--2222--2222--2222--|
  ****  ****  ****  ****  ****  ****  ****  ****

( 7-String Version                                    )
(e|-------------------------------------------------| )
(B|-------------------------------------------------| )
(G|-------------------------------------------------| )
(D|-------------------------------------------------| )
(A|-------------------------------------------------| )
(E|-2222--2222--2222--2222--2222--2222--2222--2222--| )
(B|-0000--0000--0000--0000--0000--0000--0000--0000--| )
    ****  ****  ****  ****  ****  ****  ****  ****

|-------------------------------------------------|
|-------------------------------------------------|
|-----------------------------5544----------------|
|-----------------000222333222--------------------|
|----------0002233--------------------------------|
|-000222444---------------------------------------|
  ********************************

( 7-String Version                                    )
(e|-------------------------------------------------| )
(B|-------------------------------------------------| )
(G|-----------------------------5544----------------| )
(D|-----------------------333222--------------------| )
(A|-----------------000333--------------------------| )
(E|----------0002233--------------------------------| )
(B|-000222333---------------------------------------| )
    ********************************


|-------------------------------------------------|
|-------------------------------------------------|
|-------------------------------------------------|
|-------------------------------------------------|
|-2222--2222--2222--2222--2222--2222--2222--2222--|
|-2222--2222--2222--2222--2222--2222--2222--2222--|
  ****  ****  ****  ****  ****  ****  ****  ****

|-------------------------------------------------|
|-------------------------------------------------|
|---------------------------------------44-55-----|
|-----------------------000-222-333-222-----------|
|-------------000-22-33---------------------------|
|-000-222-444-------------------------------------|


|----------------------------------|
|----------------------------------|
|----------------------------------|
|----------------------------------|
|----------------------------------|
|-2-0-0-3-0-0-2-0-0-3-0-0-2-0-3-0--|
  * * * * * * * * * * * * * * * *

( 7-String Version                                    )
(e|-------------------------------------------------| )
(B|-------------------------------------------------| )
(G|-------------------------------------------------| )
(D|-------------------------------------------------| )
(A|-------------------------------------------------| )
(E|-------------------------------------------------| )
(B|-7-0-0-8-0-0-7-0-0-8-0-0-7-0-8-0-----------------| )
    * * * * * * * * * * * * * * * *

|----------------------------------|
|----------------------------------|
|----------------------------------|
|----------------------------------|
|-------------------------1-0-2-0--|
|-2-0-0-3-0-0-2-0-0-3-0-0----------|
  * * * * * * * * * * * * * * * *

( 7-String Version                                    )
(e|-------------------------------------------------| )
(B|-------------------------------------------------| )
(G|-------------------------------------------------| )
(D|-------------------------------------------------| )
(A|-------------------------------------------------| )
(E|-------------------------6-0-7-0-----------------| )
(B|-7-0-0-8-0-0-7-0-0-8-0-0-------------------------| )
    * * * * * * * * * * * * * * * *

|-------------------------------------------------|
|-------------------------------------------------|
|---------------------------------------55-44-----|
|-----------------------000-222-333-222-----------|
|-------------000-22-33---------------------------|
|-000-222-444-------------------------------------|

|-------------------------------------------------|
|-------------------------------------------------|
|-------------------------------------------------|
|-------------------------------------------------|
|-2222--2222--2222--2222--2222--2222--2222--2222--|
|-2222--2222--2222--2222--2222--2222--2222--2222--|
  ****  ****  ****  ****  ****  ****  ****  ****

|-------------------------------------------------|
|-------------------------------------------------|
|---------------------------------------55-44-----|
|-----------------------000-222-333-222-----------|
|-------------000-22-33---------------------------|
|-000-222-444-------------------------------------|


|----------------------------------|
|----------------------------------|
|----------------------------------|
|----------------------------------|
|----------------------------------|
|-2-0-0-3-0-0-2-0-0-3-0-0-2-0-3-0--|
  * * * * * * * * * * * * * * * *

|----------------------------------|
|----------------------------------|
|----------------------------------|
|----------------------------------|
|-------------------------1-0-2-0--|
|-2-0-0-3-0-0-2-0-0-3-0-0----------|
  * * * * * * * * * * * * * * * *

|----------------------------------|
|----------------------------------|
|----------------------------------|
|----------------------------------|
|----------------------------------|
|-2-0-0-3-0-0-2-0-0-3-0-0-2-0-3-0--|
  * * * * * * * * * * * * * * * *

|----------------------------------|
|----------------------------------|
|----------------------------------|
|----------------------------------|
|----------------------------------|
|-2-0-0-3-0-0-2-0-0-3-0-0-4-0-5-0--|  (not the same sound, but it kinda works if you
  * * * * * * * * * * * * * * * *     mute it properly...)

( 7-String Version                                    )
(e|-------------------------------------------------| )
(B|-------------------------------------------------| )
(G|-------------------------------------------------| )
(D|-------------------------------------------------| )
(A|-------------------------------------------------| )
(E|-------------------------------------------------| )
(B|-7-0-0-8-0-0-7-0-0-8-0-0-2-0-3-0-----------------| )
    * * * * * * * * * * * * * * * *
x2

|----------------------------------|
|----------------------------------|
|----------------------------------|
|----------------------------------|
|----------------------------------|
|-2-0-0-3-0-0-2-0-0-3-0-0-2-0-3-0--|

|----------------------------------|
|----------------------------------|
|----------------------------------|
|----------------------------------|
|-------------------------1-0-2-0--|
|-2-0-0-3-0-0-2-0-0-3-0-0----------|

|----------------------------------|
|----------------------------------|
|----------------------------------|
|----------------------------------|
|----------------------------------|
|-2-0-0-3-0-0-2-0-0-3-0-0-2-0-3-0--|

|----------------------------------|
|----------------------------------|
|----------------------------------|
|----------------------------------|
|----------------------------------|
|-2-0-0-3-0-0-2-0-0-3-0-0-4-0-5-0--|

x2


not too sure about this part... haven't bothered about it yet...
|----------------------------------|
|----------------------------------|
|----------------------------------|
|----------------------------------|
|--12-11-9-14-12-11----14tr(15)----|
|--10-9--7-12-10-9-----------------|

Solo 2 (with verse as background)
   T  T  T  T  T  T  T  T  T  T  T  T  T  T  T  T  T  T  T  T  T  T  T  T  T  T
|--------------------------------------------------------------------------------|
|--------------------------------------------------------------------------------|
|--------------------------------------------------------------------------------|
|-----------------------------------------------14----------------14-16-17-14-16-|
|-----------12----------------12-14-15-14-15-17----17-15-14-15-17----------------|
|--12-14-15----15-14-12-14-15----------------------------------------------------|


   T  T  T  H          T  T  T  T  T  T  T  T  T  T  T  T  T
|-------------------------------------------------------------|
|-------------------------------------------------------------|
|-----14-14-16~-----------------14----------------14-16-17-16-|
|--17------------------14-16-17----17-16-14-16-17-------------|
|-------------------------------------------------------------|
|-------------------------------------------------------------|


   T  T  T  T  T  T  T  T  T  T  T  T  T  T  T  T  T  T  T  T  T  T  H
|--------------------------------------------15----------------15-17-19~--------|
|--------17----------------15-17-19-15-17-19----19-17-15-17-19------------------|
|--17-19----19-17-16-17-19------------------------------------------------------|
|-------------------------------------------------------------------------------|
|-------------------------------------------------------------------------------|
|-------------------------------------------------------------------------------|


   T   T  T  T  T  T  T  T  T  T  H
|--19h-19-19-19-15---------------------------|
|------------------17------------------------|
|---------------------16---------------------|
|------------------------17------------------|
|---------------------------19---------------|
|------------------------------19-12~--------|


   E   E   E   Q      T  T  T  T  T  T  T  T  T  T  T  T
|---------------------------------------------------------|
|---------------------------------------------------------|
|---------------------12-11----------12-11----------12-11-|
|---------------------------14-12-14-------14-12-14-------|
|--17--16--14--12~----------------------------------------|
|---------------------------------------------------------|


   T  T  T  T  T  T  T  T  E   E   E   E   E   E      Q
|--------------------------------------------------|---------||
|--------------------------------------------------|---------||
|-----------12-11----------16--14--12--------------|---------||
|--14-12-14-------14-12-14-------------16--14--12--|--13~----||
|--------------------------------------------------|---------||
|--------------------------------------------------|---------||

Verse x2
Prechorus x2
Chorus x2

Outro Riff:
|------------------------------------------------------------------|
|------------------------------------------------------------------|
|------------------------------------------------------------------|
|------------------------------------------------------------------|
|-2-2-2-2-2~-2-2-2-7-7-7-7-6-6--3-3-3-3-3~-3-3-3-9-9-9-9-7-7-------|
|-2-2-2-2-2~-2-2-2-7-7-7-7-6-6--3-3-3-3-3~-3-3-3-9-9-9-9-7-7-------|
    * * *    * * *       *        * * *    * * *       *

( 7-String Version                                    )
(e|------------------------------------------------------------------| )
(B|------------------------------------------------------------------| )
(G|------------------------------------------------------------------| )
(D|------------------------------------------------------------------| )
(A|------------------------------------------------------------------| )
(E|-2-2-2-2-2~-2-2-2-7-7-7-7-6-6--3-3-3-3-3~-3-3-3-9-9-9-9-7-7-------| )
(B|-0-0-0-0-0~-0-0-0-5-5-5-5-4-4--1-1-1-1-1~-1-1-1-7-7-7-7-5-5-------| )
      * * *    * * *       *        * * *    * * *       *


That's it. comment are appreciated, while all flames will be used to cook any spam I might recieve ;)
and thanks again to Newby99 for the solo parts :D

Any questions, please post or PM or e-mail me!!!

            
            
Suggest correction
Creating personal tab
Creating personal tab
You can edit any tab online and save it as your Personal.

You can edit, replace or remove any tab part or add personal notes – all changes will be seen only by you.

Personal tabs can be accessed anytime from any device, even offline.
Learn more »
comments
print report bad tab
13 comments total. Showing first comments.
0 reply
zackvalo16 119 Jan 15, 2007 12:15 PM

awesome tab man!! can't wait till it's finished, the outro solo sounds crayz hard, but i wanna learn it!!..5 STARS...

0 reply
JuCe 60 Jan 17, 2007 05:20 PM

there's just a few corrections i need to do atm...
this:
|----------------------------------------------------------|
|----------------------------------------------------------|
|----------------------------------------------------------|
|-9-9-9-9-9-9--7-7-7-7-7-7--5-5-5-5-5-5--3-3-3-3-3-3-------|
|-9-9-9-9-9-9--7-7-7-7-7-7--5-5-5-5-5-5--3-3-3-3-3-3-------|
|-7-7-7-7-7-7--5-5-5-5-5-5--3-3-3-3-3-3--1-1-1-1-1-1-------|
* * * * * * * * * * * *
should have the mutes on the first, third and fifth strums, not the other wayaround, if you know what i mean ;)
This:
|-------------------------------------------------|
|-------------------------------------------------|
|-------------------------------------------------|
|-------------------------------------------------|
|-2222--2222--2222--2222--2222--2222--2222--2222--|
|-0000--0000--0000--0000--0000--0000--0000--0000--|
**** **** **** **** **** **** **** ****
should be this:
|-------------------------------------------------|
|-------------------------------------------------|
|-------------------------------------------------|
|-------------------------------------------------|
|-2222--2222--2222--2222--2222--2222--2222--2222--|
|-2222--2222--2222--2222--2222--2222--2222--2222--|
**** **** **** **** **** **** **** ****
and i've pretty much figured out the outro riff:
|------------------------------------------------------------------|
|------------------------------------------------------------------|
|------------------------------------------------------------------|
|------------------------------------------------------------------|
|-2-2-2-2-2~-2-2-2-7-7-7-7-6-6--3-3-3-3-3~-3-3-3-9-9-9-9-7-7-------|
|-2-2-2-2-2~-2-2-2-7-7-7-7-6-6--3-3-3-3-3~-3-3-3-9-9-9-9-7-7-------|
* * * * * * * * * * * * * *

0 reply
JuCe 60 Jan 17, 2007 05:24 PM

freakin 'ell, it's like this:
|------------------------------------------------------------------|
|------------------------------------------------------------------|
|------------------------------------------------------------------|
|------------------------------------------------------------------|
|-2-2-2-2-2~-2-2-2-7-7-7-7-6-6--3-3-3-3-3~-3-3-3-9-9-9-9-7-7-------|
|-2-2-2-2-2~-2-2-2-7-7-7-7-6-6--3-3-3-3-3~-3-3-3-9-9-9-9-7-7-------|
----*-*-*----*-*-*-------*--------*-*-*----*-*-*-------*------------

and how do you edit a tab you've already posted?

guest
You may want to rate the tab now too:
select rating
Wanna post a correction for this tab? Suggest correction