Oops, an error
Loading. Please wait.

Blinding Tears Will Break The Skies Tab

version 2
version 2

Whole song

Interactive

1,646 views 3 this week
4 commentsread comments
1 2 3 4 5
accurate
x 8
add to favorites
launch autoscroll
font size
0
reset
how to read this tab
guitar tuner
Autoscroll
slow
fast
+/-
esc
set tempo
stop
Help us to improve Ultimate-Guitar.com Take our survey!
×
Author
Difficulty
Tuning
intermediate
D A D G B E
-------------------------------------------------------------------------------
              Blinding Tears will Break the Skies - Trivium
-------------------------------------------------------------------------------
Tuning: Drop D

Note: This is nowhere near 100% correct but it's much better than the other version
posted here. Email me with any corrections.

Opening (guitar 2 plays this a third higher)

e|---------------|
B|---------------|
G|---------------|
D|---------------|
A|-7h8p7-0h5h7p4-|
D|---------------|


Riff A: (verse)
e|----------------------|------------------------------|
B|----------------------|------------------------------|
G|----------------------|------------------------------|
D|----------------------|------------------------------|
A|-5-----7------8----7--|--5-----7----7h8p7-0h5h7p4----|
D|---000-----88---88----|----000-----------------------|


Riff B: (pre-chorus)
e|-------------------------------------------------------------------|
B|-------------------------------------------------------------------|
G|-------------------------------------------------------------------|
D|-------------------------------------------------------------------|
A|----------7h8p7---------7h8p7---------7h8p7-----------7h8p7--------|
D|--000-000-------000-000-------888-888-------10-10-10---------------|


Riff C: (chorus [syncopate this any way you think sounds right, these are just the chords])
e|-------------------|--------------------------------------------------------|
B|-------------------|--------------------------------------------------------|
G|-------------------|--------------------------------------------------------|
D|--0----0-----8--5--|-0----0-----8--10---------------------------------------|
A|--0----0-----8--5--|-0----0-----8--10---------------------------------------|
D|--0-00-0--0--8--5--|-0-00-0--0--8--10---------------------------------------|


Riff D1: (The lead played in the 2nd part of the chorus)
e|---------------------------------------------------------------------------------------------|
B|--11----11-10---10-------------------------------------------------------------10-11-10------|
G|-----10-------x----12-x-12--12-10-12-10-9-10--9-10-9----------9-10-9--------------------10---|
D|-----------------------------------------------------12-10-12--------12-10-12----------------|
A|---------------------------------------------------------------------------------------------|
D|---------------------------------------------------------------------------------------------|

Riff D2: (same riff as before only I play it a little different. Try each and play 
whichever one sounds better, neither are 100% correct though)
e|------------------------------------------------------------------------------------------------|
B|-11----11-10----11-10----10-x-10----10------------------------------------------10-11-10--------|
G|----10-------12-------12---------12----12-10-9--9-10-9----------9-10-9-------------------10-----|
D|-------------------------------------------------------12-10-12--------12-10-12-----------------|
A|------------------------------------------------------------------------------------------------|
D|------------------------------------------------------------------------------------------------|


Riff E: (2nd part to the breakdown and backing to the solo. I can't get the first part to the 
breakdown, sorry)
e|---------------------------------------------------------------------------|
B|---------------------------------------------------------------------------|
G|---------------------------------------------------------------------------|
D|-0-2-3-7-3-2-----0-2-3-8-7-3-----------------------------------------------|
A|-0-2-3-7-3-2-----0-2-3-8-7-3-----------------------------------------------|
D|-0-2-3-7-3-2-----0-2-3-8-7-3-----------------------------------------------|




| /  slide up
| \  slide down
| h  hammer-on
| p  pull-off
| ~  vibrato
| +  harmonic
| x  Mute note
===============================================================================
Suggest correction
comments
print report bad tab
4 comments total. Showing first comments.
0 reply
spill 154 wrote on March 16 2006, 06:36 pm

nice i like it bit hard to follow round at first but hey thy never said rockin wud b easy
...best triv song...until th crusaiders

0 reply
mrsgreenwood88 26 wrote on April 24 2006, 06:44 pm

thats ok i can't figure out the friggin solo either . . its so ****ing hard

but hey good tab . . def better than the other one

0 reply
metal_emo 10 wrote on May 21 2006, 05:19 am

Amazimg song, great tab...the solo is reeeeely hard but plz try n post it soon cos it rely rocks

guest
You may want to rate the tab now too:
select rating
Please do not post tabs as comments. Select "correction" instead!