Oops, an error
Loading. Please wait.

Built To Fall Tab

version 1
version 1

Acoustic

Whole song

Interactive

53,560 views 63 this week
3 commentsread comments
1 2 3 4 5
x 26
add to favorites
launch autoscroll
font size
0
reset
how to read this tab
guitar tuner
Autoscroll
slow
fast
+/-
esc
set tempo
stop
Help us to improve Ultimate-Guitar.com Take our survey!
×
Author
Difficulty
Tuning
novice
C# G# C# F# A# D#
Built to Fall (Acoustic)
Trivium
In Waves (2011)

Tabbed by: Griff5516
Tuning: Drop C# (C# G# C# F# A# D#)

This is a tab of the live acoustic version of Built to fall by Trivium, which is off of 
their new album In Waves.


[Intro]

D#|-----------------------------------|
A#|-----------------------------------|
F#|-----------------------------------|
C#|-----------------------------------| 
G#|----8-------4-5---10------7--------|
C#|--0---0---0-----8----8--5---5v-----|(x8)


[Verse]

D#|----------------------------------------|
A#|----------------------------------------|
F#|----------------------------------------|
C#|--0-3-0---------------------------------| 
G#|--0-3-0-0-0-0-0-0-10-10-0-0-7-7-0-0-----|
C#|--0-3-0-0-0-0-0-0--8--8-0-0-5-5-0-0-----|(x4)
           . . . . .       . .     . .

Sequence starts through a 5th time, but ends early going into pre-chorus


[Pre-Chorus]

D#|--------------------------------------------|
A#|--------------------------------------------|
F#|--------------------------------------------|
C#|--3~-----------5~-------6-------------------|
G#|--1~-----------3~-------4-4-4-4-4---5h7-----|
C#|--------------------------x-x-x---0---------|
         * * * *     * *     . . .   .

The stars represent Matt hitting his guitar in between the held notes (its optional, he 
just did it for timing)


[Chorus]

D#|----------------------------------------------------------------------|
A#|----------------------------------------------------------------------|
F#|--------------------(10)----(10)-----(7)-----(7)-----(9)--------------|
C#|------0-------0-------8-------8-------5-------5-------7---------------| 
G#|--0-0-0-0-0-0-0-0-8-8-8-8-8-8-8-8-5-5-5-5-5-5-5-5-7-7-7-7-4---5h7-----|
C#|--0-0-0-0-0-0-0-0-8-8-8-8-8-8-8-8-5-5-5-5-5-5-5-5-7-7-7-7---0---------|(x2)
                                                               .

[Pre-Verse]

D#|-----------------------------------|
A#|-----------------------------------|
F#|-----------------------------------|
C#|-----------------------------------|
G#|----8-------4-5---10------7--------|
C#|--0---0---0-----8----8--5---5v-----|

D#|-----------------------------------|
A#|-----------------------------------|
F#|-----------------------------------|
C#|-----------------------------------|
G#|----8-------4-5---10------7-8/3----|
C#|--0---0---0-----8----8--5---8/3----|


[Pre-Verse] 
goes directly into verse…


** Verse and Chorus played through exactly the same, then goes into the bridge:


[Bridge]

D#|----------------------------------------------------------------------|
A#|----------------------------------------------------------------------|
F#|----------------------------------------------------------------------|
C#|--3-3-3-3-3-3-3-3-3-3-3-3-5-5-5-5-7-7-7-7-7-7-7-7-7-7-7-7-5-5-5-5-----|
G#|--1-1-1-1-1-1-1-1-1-1-1-1-3-3-3-3-5-5-5-5-5-5-5-5-5-5-5-5-3-3-3-3-----|
C#|----------------------------------------------------------------------|
       . . . . . . . . . . . . . . . . . . . . . . . . . . . . . . .

D#|----------------------------------------------------------------------------|
A#|----------------------------------------------------------------------------|
F#|----------------------------------------------------------------------------|
C#|--3-3-3-3-3-3-3-3-3-3-3-3-5-5-5-5-7-7-7-7-7-7-7-7-7-7-7--7-7-5-5-5--5-5-----|
G#|--1-1-1-1-1-1-1-1-1-1-1-1-3-3-3-3-5-5-5-5-5-5-5-5-5-5-5--5-5-3-3-3--3-3-----|
C#|----------------------------------------------------------------------------|
     . . . . . . . . . . . . . . . . . . . . . . . .

D#|----------------------------------------------------------------------|
A#|----------------------------------------------------------------------|
F#|----------------------------------------------------------------------|
C#|--3-3-3-3-3-3-3-3-3-3-3-3-5-5-5-5-7-7-7-7-7-7-7-7-7-7-7-7-5-5-5-5-----| 
G#|--1-1-1-1-1-1-1-1-1-1-1-1-3-3-3-3-5-5-5-5-5-5-5-5-5-5-5-5-3-3-3-3-----|
C#|----------------------------------------------------------------------|(x5)

On the fifth time through, ends with:

D#|-------------------------------------|
A#|-------------------------------------|
F#|-------------------------------------|
C#|-------------------------------------|
G#|--------------3-3---8----4---5h7-----|
C#|--0-0-2-2-3-3-----0---0----0---------|
                              .

This leads into chorus, played through twice then again with a slightly different 
strumming pattern. The song then ends with:


[Ending]

D#|--------------------|
A#|--------------------|
F#|--------------------|
C#|--------------------|
G#|--4---5h7---8-------|
C#|----0-----0---0-----|

That's it! If anything seems vague, just let me know, or watch my cover for help:
http://www.youtube.com/watch?v=va7MYhv57Kw



************************************

| .    Staccato
| ~    Vibrato
| h    Hammer-on
| x    Dead note
| (n)  Ghost note
| /    Slide up
| v    vibrato

************************************
Suggest correction
comments
print report bad tab
3 comments total. show 1 bad comment
0 reply
slipknot836 1,829 Oct 12, 2011 02:18 PM

Glad you've reposted this tab dude :D

0 reply
slipknot836 1,829 Oct 12, 2011 02:20 PM

The other version has been removed now

guest
You may want to rate the tab now too:
select rating
Wanna post a correction for this tab? Suggest correction