Oops, an error
Loading. Please wait.

Built To Fall Tab

version 2
version 2

Whole song

Interactive

134,384 views 162 this week
14 commentsread comments
1 2 3 4 5
x 49
add to favorites
launch autoscroll
font size
0
reset
how to read this tab
guitar tuner
Autoscroll
slow
fast
+/-
esc
set tempo
stop
Help us to improve Ultimate-Guitar.com Take our survey!
×
Author
Difficulty
Tuning
advanced
C# G# C# F# A# D#
Band:  Trivium
Song:  Built To Fall
Album: In Waves

Tuning: Drop C# (C#, G#, C#, F#, A#, D#)
(Tune all strings down half a step then drop tune)

I think the solo is correct but I can only make out and tab what I can hear.
Let me know if anything is incorrect guys, any complaint or corrections I’d be
Glad to hear, I’ll take the criticism :P
Also, please rate :D


UPDATE: 31.12.11: Bridge-Lead guitar: Added Harmony and put the tabbing on the
                                      high E string
                           Interlude: Added Guitar 2's Harmony
                             Solo(s): Corrected to being 4 solos instead of 2 &    |
                                      corrected the solo 100% sure this perfect    |
                                      Watched a video demonstration: Link below    |
                                                                                   v
                                      http://www.youtube.com/watch?v=17eG1IgLk68&feature=fvsr

UPDATE: 30.04.12: Verse 2 guitar 2:   Added the small riff that Corey plays the
                                      Second time verse 2 is played
                                      Credit to @VinnyVee



Guitar 1: Matt Heafy
Guitar 2: Corey Beaulieu


  [Intro]
  Guitar 1
D#|----------------|------------------|
A#|----------------|------------------|
F#|----------------|------------------|
C#|----------------|------------------|
G#|---8--------4-5-|---10-------7-----|
C#|-0---0----0-----|-8----8~--5---5~--|

  Guitar 2
D#|----------------|------------------|
A#|----------------|------------------|
F#|----------------|------------------|
C#|----------------|------------------|
G#|---8------------|------------------|
C#|-0---0----------|------------------|

  Guitar 1
D#|----------------|------------------|
A#|----------------|------------------|
F#|----------------|------------------|
C#|----------------|------------------|
G#|---8--------4-5-|---10-------7-----|
C#|-0---0----0-----|-8----8~--5---5~--|

  Guitar 2
D#|----------------|------------------|
A#|----------------|------------------|
F#|----------------|------------------|
C#|----------------|------------------|
G#|---8------------|------------7-----|
C#|-0---0----------|----------5---5~--|


  [Verse]
  Both Guitars
D#||----------------|------------------||
A#|o----------------|------------------o| x6
F#||----------------|------------------||
C#||----------------|------------------||
G#|o---8--------4-5-|---10-------7-----o|
C#||-0---0----0-----|-8----8~--5---5~--||



  [Verse]
  Both Guitars
D#||-----------------|-----------------||
A#|o-----------------|-----------------o| x4
F#||-----------------|-----------------||
C#||-----------------|-----------------||
G#|o-0-3-0-0-0-0-3-5-|-8-8-8-8-5-5-5-5-o|
C#||-0-3-0-0-0-0-3-5-|-8-8-8-8-5-5-5-5-||


  [Chorus]
  Guitar 1
D#|---------|---------|---------|-----------------|
A#|---------|---------|---------|-----------------|
F#|---------|---------|---------|---------6---7-9-|
C#|-3-------|---------|-5-------|-7-7-7-7---------|
G#|-1-------|---------|-3-------|-4-4-4-4-4-x-5-7-|
C#|---------|---------|---------|-----------x-----|

  Guitar 2
D#|-----------------|-----------------|-----------------|-5-3-------------|
A#|-6-5-3---6-5-3---|-6-5-3---6-5-3---|-8-6-5---8-6-5---|-----6-5-----3-5-|
F#|-------3-------3-|-------3-------3-|-------5-------5-|---------6-2-----|
C#|-----------------|-----------------|-----------------|-----------------|
G#|-----------------|-----------------|-----------------|-----------------|
C#|-----------------|-----------------|-----------------|-----------------|


  [Chorus]
  Guitar 1
D#|-----------------|-----------------|-----------------|-----------------|
A#|-----------------|-----------------|-----------------|-----------------|
F#|-----------------|-----------------|-----------------|---------6---7-9-|
C#|-----------------|-3-3-3-3-3-3-3-3-|-----------------|-----------------|
G#|-0-0-0-0-0-0-0-0-|-1-1-1-1-1-1-1-1-|-5-5-5-5-5-5-5-5-|-7-7-7-7-4-x-5-7-|
C#|-0-0-0-0-0-0-0-0-|-----------------|-5-5-5-5-5-5-5-5-|-7-7-7-7---x-----|

  Guitar 2
D#|----------------------|----------------------|
A#|----------------------|----------------------|
F#|-7-7-7-10-10-10-12-12-|-7-7-7-10-10-10-12-12-|
C#|----------------------|----------------------|
G#|-5-5-5--8--8--8-10-10-|-5-5-5--8--8--8-10-10-|
C#|----------------------|----------------------|

D#|----------------------|-----------------|
A#|----------------------|-----------------|
F#|-7-7-7-10-10-10-12-12-|-9-9-9-9-6---7-9-|
C#|----------------------|-----------------|
G#|-5-5-5--8--8--8-10-10-|-7-7-7-7-4-x-5-7-|
C#|----------------------|-----------x-----|

  Guitar 1
D#|-----------------|-----------------|-----------------|-----------------|
A#|-----------------|-----------------|-----------------|-----------------|
F#|-----------------|-----------------|-----------------|---------6---7-9-|
C#|-----------------|-3-3-3-3-3-3-3-3-|-----------------|-----------------|
G#|-0-0-0-0-0-0-0-0-|-1-1-1-1-1-1-1-1-|-5-5-5-5-5-5-5-5-|-7-7-7-7-4-x-5-7-|
C#|-0-0-0-0-0-0-0-0-|-----------------|-5-5-5-5-5-5-5-5-|-7-7-7-7---x-----|

  Guitar 2
D#|----------------------|----------------------|
A#|----------------------|----------------------|
F#|-7-7-7-10-10-10-12-12-|-7-7-7-10-10-10-12-12-|
C#|----------------------|----------------------|
G#|-5-5-5--8--8--8-10-10-|-5-5-5--8--8--8-10-10-|
C#|----------------------|----------------------|

D#|--------------------|-----------------|
A#|-10-----10-----10---|-----------------|
F#|----7------7------7-|-9-6---9-6---7-9-|
C#|------7------7------|-----7-----7-----|
G#|--------------------|-----------------|
C#|--------------------|-----------------|


Repeat Verse 1 x2


Repeat Verse 2 x 4

  (Guitar 1 repeats verse 2 whilst guitar 2 plays this below)
  Guitar 2
D#||-5---5---5---5---6---6---3---3---||
A#|o---3---3---3---3---3---3---3---3-o|
F#||---------------------------------||
C#||---------------------------------||
G#|o---------------------------------||
C#||---------------------------------||


Repeat Pre Chorus


Repeat Chorus


  [Bridge]
  Guitar 1
D#||-----------------|-----------------|-----------------|-----------------||
A#|o-----------------|-----------------|-----------------|-----------------o| x4
F#||-----------------|-----------------|-----------------|-----------------||
C#||-3-3-3-3-3-3-3-3-|-3-3-3-3-5-5-5-5-|-7-7-7-7-7-7-7-7-|-7-7-7-7-5-5-5-5-||
G#|o-1-1-1-1-1-1-1-1-|-1-1-1-1-3-3-3-3-|-5-5-5-5-5-5-5-5-|-5-5-5-5-3-3-3-3-o|
C#||-----------------|-----------------|-----------------|-----------------||

  Guitar 2
D#||-10-------13----12----10-|-x-10-------13-12----10-||
A#|o----10-------------13----|------10----------13----o| x3
F#||-------10----10----------|---------10-------------||
C#||-------------------------|------------------------||
G#|o-------------------------|------------------------o|
C#||-------------------------|------------------------||

D#|-10-------13----12----10-|-x-10-------17-15h17p15-------|
A#|----10-------------13----|------10----------------18-17-|
F#|-------10----10----------|---------10-------------------|
C#|-------------------------|------------------------------|
G#|-------------------------|------------------------------|
C#|-------------------------|------------------------------|

  Guitar 1
D#||-----------------|-----------------|-----------------|-----------------||
A#|o-----------------|-----------------|-----------------|-----------------o| x3
F#||-----------------|-----------------|-----------------|-----------------||
C#||-3-3-3-3-3-3-3-3-|-3-3-3-3-5-5-5-5-|-7-7-7-7-7-7-7-7-|-7-7-7-7-5-5-5-5-||
G#|o-1-1-1-1-1-1-1-1-|-1-1-1-1-3-3-3-3-|-5-5-5-5-5-5-5-5-|-5-5-5-5-3-3-3-3-o|
C#||-----------------|-----------------|-----------------|-----------------||

  Guitar 1
D#|-----------------|-----------------|-----------------|-----------------|
A#|-----------------|-----------------|-----------------|-----------------|
F#|-----------------|-----------------|-----------------|-----------------|
C#|-3-3-3-3-3-3-3-3-|-3-3-3-3-5-5-5-5-|-7-7-7-7-7-7-7-7-|-----------------|
G#|-1-1-1-1-1-1-1-1-|-1-1-1-1-3-3-3-3-|-5-5-5-5-5-5-5-5-|-------------3-3-|
C#|-----------------|-----------------|-----------------|-0-0-2-2-3-3-----|

  Guitar 2
D#||-10-------13----12----10-|-x-10-------13-12----10-||
A#|o----10-------------13----|------10----------13----o| x3
F#||-------10----10----------|---------10-------------||
C#||-------------------------|------------------------||
G#|o-------------------------|------------------------o|
C#||-------------------------|------------------------||

D#|-10-------13----12----10-|-x-10-------17-15h17p15-------|
A#|----10-------------13----|------10----------------18-17-|
F#|-------10----10----------|---------10-------------------|
C#|-------------------------|------------------------------|
G#|-------------------------|------------------------------|
C#|-------------------------|------------------------------|

  Harmony (played second time around)
D#||-13-------17----15----13-|-x-13-------17-15----13-||
A#|o----13-------------17----|------13----------17----o| x3
F#||-------14----14----------|---------14-------------||
C#||-------------------------|------------------------||
G#|o-------------------------|------------------------o|
C#||-------------------------|------------------------||

D#|-13-------17----15----13-|-x-13-------20-18h20p18-------|
A#|----13-------------17----|------13----------------22-20-|
F#|-------14----14----------|---------14-------------------|
C#|-------------------------|------------------------------|
G#|-------------------------|------------------------------|
C#|-------------------------|------------------------------|


  [Solo]
  Guitar 2 (Guitar 1 plays Bridge Rhythm)
                                         TD                        T
D#|-------------------|-------------------|---------------10h12h13-17=|
A#|-------------10/13-|-11~~-10-----------|---------------------------|
F#|-/7~~~~----7-------|---------12-10~-12=|=/14~-12-12~~~-------------|
C#|-------------------|-------------------|---------------------------|
G#|-------------------|-------------------|---------------------------|
C#|-------------------|-------------------|---------------------------|
                          T                         T                        T                T
|p13p12p10---------------------------------------------------------------------------------------|
|---------h13p11p10h11h13-17p13p11p10------------------------------------------------------------|
|------------------------------------h12p10p9h10h12-15p12p10p9-----------------------------------|
|-------------------------------------------------------------h12p10p8h10h12-15p12p10p8h10h12-15=|
|------------------------------------------------------------------------------------------------|
|------------------------------------------------------------------------------------------------|

  Last note continues into solo 2
D#|-----------|
A#|-----------|
F#|-----------|
C#|p12~~~~~~~-|
G#|-----------|
C#|-----------|


  [Solo]
  Guitar 1 (Guitar 2 plays Bridge Rhythm)
D#|---------------|-----------------|-------------------|------/10~-13-10h13p10----|
A#|---------------|-----------6-----|-----------10------|-----------------------13-|
F#|---------------|-------5-7---7-5-|-7~~--/10~----10-7-|-10~~---------------------|
C#|-----------3---|-3-5/7-----------|-------------------|--------------------------|
G#|-/5~~~-3-5---5-|-----------------|-------------------|--------------------------|
C#|---------------|-----------------|-------------------|--------------------------|

  Last note continues into Solo 3
D#|-10~~~~~~~~~~----|
A#|-13BU(15)~~~~----|
F#|-----------------|
C#|-----------------|
G#|-----------------|
C#|-----------------|

  [Solo]
  Guitar 2 (Guitar 1 plays Bridge Rhythm)
D#|----------------------------------|--------------------------|
A#|-------------------------6h10p6~~-|-/13-11-10----------------|
F#|---------7h9p7-------7h9----------|-----------12-12-10-12-10-|
C#|-----7h8-------8p7h8--------------|--------------------------|
G#|-7h8------------------------------|--------------------------|
C#|----------------------------------|--------------------------|

                                   T
D#|------------------------13h17-|-22/24\22p17p13-------------------------|
A#|----------------------15------|---------------15-----------------------|
F#|-/14---12-12~~------14--------|-----------------14------12-14-15-14-12-|
C#|------------------15----------|-------------------15-------------------|
G#|----------------17------------|---------------------17-----------------|
C#|------------------------------|----------------------------------------|

  Last note continues into Solo 4
D#|-----------|
A#|-----------|
F#|-10~~~~~---|
C#|-----------|
G#|-----------|
C#|-----------|


  [Solo]
  Guitar 1 (Guitar 2 plays Bridge Rhythm)
D#|---------10-------------10-------------10------------10------|
A#|-----------13p10----------13p10----------13p10---------13p10-|
F#|-12BU(14)-------12BU(14)-------12BU(14)-------12BU(14)-------|
C#|-------------------------------------------------------------|
G#|-------------------------------------------------------------|
C#|-------------------------------------------------------------|

D#|---------10-------------10----------------|
A#|-----------13p10----------13p10-13BU(15)--|
F#|-12BU(14)-------12BU(14)------------------|
C#|------------------------------------------|
G#|------------------------------------------|
C#|------------------------------------------|

D#|-10---------12---------13---------|-15---------20BU(22)~~~-----|
A#|-13BU(15)---15BU(17)---16BU(18)---|-18BU(20)-------------------|
F#|----------------------------------|----------------------------|
C#|----------------------------------|----------------------------|
G#|----------------------------------|----------------------------|
C#|----------------------------------|----------------------------|

  [Interlude]
  Guitar 1
D#|-----------------|
A#|-----------------|
F#|---------6---7-9-|
C#|-----------------|
G#|---8-----4-x-5-7-|
C#|-0---0-----x-----|

  Guitar 2
D#|-------------------|
A#|-------------------|
F#|---------9---10-12-|
C#|-------------------|
G#|---8-----7-x--8-10-|
C#|-0---0-----x-------|

Repeat Chorus x2

  [Outro]
D#|--------|
A#|--------|
F#|--------|
C#|--------|
G#|---8----|
C#|-0---0--|

That’s all, Enjoy and please rate :)



************************************

Hammer on:    h
Pull off:     p
Slide up:     /
Slide down:   \
Vibrato:      ~~~
Bend up:      BU(?)
Muted Note:   x 
Tapped Note:  T
Tremolo Dip:  TD
Hold Note:    ===

************************************
Suggest correction
comments
print report bad tab
14 comments total. Showing first comments.
+3 reply
mimijustrules 10 Nov 03, 2011 04:10 PM

Why is this 4 stars?!! It's really good dude, 5* all the way. Only one thing, you missed out the guitar 2 in the verse, it's quite quiet but it's still kinda important. Other than that it's a very good tab :D

0 reply
Jacksonflame 10 Feb 10, 2012 11:34 AM

This is a very good tab... if im correct i think the tune isn't as low as C# it might be drop D or half a step below drop D...

+1 reply
slipknot836 1,829 Feb 11, 2012 11:35 AM

Maybe, I don't know, maybe it's the effects and distortion that make it seem a little bit less sharp

guest
You may want to rate the tab now too:
select rating
Wanna post a correction for this tab? Suggest correction