Oops, an error
Loading. Please wait.

Caustic Are The Ties That Bind Tab

version 1
version 1

Whole song

Interactive

25,916 views 9 this week
no commentswrite comment
1 2 3 4 5
x 14
add to favorites
launch autoscroll
font size
0
reset
how to read this tab
guitar tuner
Autoscroll
slow
fast
+/-
esc
set tempo
stop
Help us to improve Ultimate-Guitar.com Take our survey!
×
Author
Difficulty
Tuning
intermediate
C# G# C# F# A# D#
Artist: Trivium
Album: In Waves (2011)
Song: Caustic Are The Ties That Bind
Tabbed by: Dan O

Tuning: Drop Db/C#

Here's all the parts in roughly the right order. I haven't any of the harmonies so this 
is good enough for one guitar to jam to :) Corrections always welcome :) Please Rate!!

http://www.youtube.com/watch?v=0ozB4EPmG60& <--- Cover of this song :D

Riff A
eb|----------------------------------------------------------------------------|
Bb|----------------------------------------------------------------------------|
Gb|--------6---6-------4-----------6---6-------4-----------2---2-------1-------|
Db|------4---4---4-2h4---2-------4---4---4-2h4---2-------0---0---0---0---0-----|
Ab|-4444--------------------4444--------------------0000-----------2-----------|
Db|-4444--------------------4444--------------------0000-----------------------|

eb|---------------------------------|
Bb|---------------------------------|
Gb|--------4---4--------9-----9-----|
Db|------2---2---2--6-7---6-7-------|
Ab|-2222----------------------------|
Db|-2222----------------------------|

Riff B
eb|-----------------------------------------------------|
Bb|-----------------------------------------------------|
Gb|-----6----4------6----4------6----4------6----4------|
Db|-----------------------------------------------------|
Ab|-----------------------------------------------------|
Db|-000---00----000---00----222---22----333---33--------|

Riff C
eb|-----------------------------------------------------------------|
Bb|-----------------------------------------------------------------|
Gb|---------------------------------------------------4----6--------|
Db|-7----6----7----7----6----7----6----4----6----6------------------|
Ab|-----------------------------------------------------------------|
Db|---44---44---4----00---00---0----22---22---2----33---33---3------|
Pm    ..   ..   .    ..   ..   .    ..   ..   .    ..   ..   .

Riff D
eb|---0----------2-----------------------------------------------|
Bb|-----3----------5---------------------------------------------|
Gb|-------2----------4-------------------------------------------|
Db|---------0----------2-----------------------------------------|
Ab|-0----------2-------------------------------------------------|
Db|-0----------2-----------444-2-444-2-7777-444-2-42-7777-2222---|

Back To Riff A

Clean Riff
eb|---0------0------0------0------0--------0------0------0------0------0----|
Bb|-----7------7------7------7------5--------3------3------3------3------5--|
Gb|-------------------------------------------------------------------------|
Db|-4------4------4------4------2-----2--0------0------0------0------2------|
Ab|-------------------------------------------------------------------------|
Db|-------------------------------------------------------------------------|

Solo 1
eb|-------------------------------------------------------------------------------------------|
Bb|-------------------------------------------------------------------------------------------|
Gb|--------/9--7-6-7--6h7p6-------------------------/9--7-6-7-6h7p6---------------------------|
Db|-/6--7-------------------9--6--7--/4--2---/6--7------------------9--7--/11-11-11-11/9-9----|
Ab|-------------------------------------------------------------------------------------------|
Db|-------------------------------------------------------------------------------------------|
Pm                          .                                       .          .

Riff E
eb|----------------------------------------------------------------------------------------------|
Bb|--------------------------------------------------------10-10-10-(10)-(10)-(10)-10-10---------|
Gb|--9-9-9-11-11-11-------------------------9-9-9-11-11-11-----------13---13---13--------11-11---|
Db|-----------------11-11-11-9-9-9-7-7-----------------------------------------------------------|
Ab|------------------------------------9-9-------------------------------------------------------|
Db|----------------------------------------------------------------------------------------------|

Solo 2
eb|17-19-21-19-17-19-21----17-16-14------------|
Bb|---------------------19----------17-15-14-17|
Gb|--------------------------------------------|
Db|--------------------------------------------|
Ab|--------------------------------------------|
Db|--------------------------------------------|

----------------------------------------------------|
-15-14----------------------------------------------|
-------16-14-13-16-14-13----------------------------|
-------------------------16-14-12-16-14-12----------|
-------------------------------------------16-14-12-|
----------------------------------------------------|


eb|-----------------------------------------|
Bb|-----------------------------------------|
Gb|-----------------------------------------|
Db|-12--12-11-12-16-14-12-11-11h12p11-------|
Ab|-----------------------------------12----|
Db|-----------------------------------------|

eb|----------------------------------------------------------------------------------|
Bb|--------------------------7---7-9--10-9-7----10-9-7--12-10-9--14-12-10-15--14-12--|
Gb|--------------------6---6---6-------------9---------------------------------------|
Db|-------6-7-6---6--7---7-----------------------------------------------------------|
Ab|-9-7-9-------9--------------------------------------------------------------------|
Db|----------------------------------------------------------------------------------|

eb|-14--17-16-14-12-12tr14-------------12------------|
Bb|------------------------15-14-12-14----10-10~~----|
Gb|--------------------------------------------------|
Db|--------------------------------------------------|
Ab|--------------------------------------------------|
Db|--------------------------------------------------|

Dual
eb|----------------------------------------------------------------------|
Bb|-14-12-10-12-14-----14-12-10-12br-10--10-9-7-9-10----7---7-9-7-9-10---|
Gb|----------------11--------------------------------7----9--------------|
Db|----------------------------------------------------------------------|
Ab|----------------------------------------------------------------------|
Db|----------------------------------------------------------------------|

Solo 3
eb|----------------------------------------------------------------------------|
Bb|-------15b17-15-14-15-14h15p14----------------------------------------------|
Gb|-13-14-------------------------16--13b14-(9)/11-9---------------------------|
Db|--------------------------------------------------------14-16-------14-16---|
Ab|--------------------------------------------------11-12-------14-16---------|
Db|----------------------------------------------------------------------------|

eb|-----------------------------------------------------|
Bb|-------15b17-15-14-15--14h15p14---------14-14-14-----|
Gb|-13-14--------------------------16-14---16b18r16-----|
Db|-----------------------------------------------------|
Ab|-----------------------------------------------------|
Db|-----------------------------------------------------|

That's all the parts, I'm sure you can figure out the order and things :)
Suggest correction
comments
print report bad tab
guest
You may want to rate the tab now too:
select rating
Wanna post a correction for this tab? Suggest correction