Oops, an error
Loading. Please wait.

Chaos Reigns Tab

version 1
version 1

Whole song

Interactive

3,481 views 12 this week
2 commentsread comments
1 2 3 4 5
excellent!
x 6
add to favorites
launch autoscroll
font size
0
reset
how to read this tab
guitar tuner
Tab Pro tools
  • play this tab
  • loop segment
  • change instrument
  • show fretboard
  • metronome
×
Best way to learn
"Chaos Reigns"
Autoscroll
slow
fast
+/-
esc
set tempo
stop
Contributor
Difficulty
Tuning
advanced
C# G# C# F# A# D#
Band:  Trivium
Song:  Chaos Reigns
Album: In Waves

Tuning: Drop C# (C#, G#, C#, F#, A#, D#)
(Tune all strings down half a step then drop tune)

By far the most frigging difficult time signature Trivium have done
Start learning this song by practising on a metronome on a 5/4 beat
At about 200beats per minute... Or practise it at 5/4 100bpm just to
Get the hang of the time signature.

Enjoy!!!

Please rate, comment, correct, anything that helps :)

Hammer on:    h
Pull off:     p
Slide up:     /
Slide down:   \
Tremelo pick: Tr---

Guitar 1: Matt Heafy
Guitar 2: Corey Beaulieu


Intro
Guitar 1
|--------------------------------------------------------------|
|--------------------------------------------------------------|
|--------------------------------------------------------------|
|--------------------------------------------------------------|
|--------------------------------------------------------------|
|-0h12h15-0---0---0h12h15-0---0---0h12h15-0---0---0h12h15p0h14-|
|
|Guitar 2
|--------------------------------------------------------------|
|--------------------------------------------------------------|
|--------------------------------------------------------------|
|--------------------------------------------------------------|
|--------------------------------------------------------------|
|-------------------------------------------------0h12h15p0h14-|

Guitar 1
|----------------------------------------------------------|
|----------------------------------------------------------|
|----------------------------------------------------------|
|----------------------------------------------------------|
|----------------------------------------------------------|
|-0h8h12-0---0---0h8h12-0---0---0h8h12-0---0---0h8h12p0h11-|
|
|Guitar 2
|-----------------------------------------------------------|
|-----------------------------------------------------------|
|-----------------------------------------------------------|
|-----------------------------------------------------------|
|-----------------------------------------------------------|
|----------------------------------------------0h12h15p0h14-|

_______________________________________________________________________


Verse 1/chorus
Guitar 1
|--------------------------------------------------------------|
|--------------------------------------------------------------|
|--------------------------------------------------------------|
|--------------------------------------------------------------|
|--------------------------------------------------------------|
|-0h12h15-0---0---0h12h15-0---0---0h12h15-0---0---0h12h15p0h14-|
|
|Guitar 2
|--------------------------------------------------------------|
|--------------------------------------------------------------|
|--------------------------------------------------------------|
|--------------------------------------------------------------|
|--------------------------------------------------------------|
|-0h12h15-0---0---0h12h15-0---0---0h12h15-0---0---0h12h15p0h14-|

Guitar 1
|--------------------------------------------------------------|
|--------------------------------------------------------------|
|--------------------------------------------------------------|
|--------------------------------------------------------------|
|--------------------------------------------------------------|
|-0h12h15-0---0---0h12h15-0---0---0h12h15-0---0---0h12h15p0h14-|
|
|Guitar 2
|----------------------------------------------------------|
|----------------------------------------------------------|
|----------------------------------------------------------|
|----------------------------------------------------------|
|----------------------------------------------------------|
|-0h8h12-0---0---0h8h12-0---0---0h8h12-0---0---0h8h12p0h11-|

_______________________________________________________________________


Verse 2
Guitar 1
|-----------------|-----------------|-----------------|-----------------|
|-----------------|-----------------|-----------------|-----------------|
|-----------------|-----------------|-----------------|-----------------|
|-0---------------|-5---------------|-8---------------|-----------------|
|-0---------------|-5---------------|-8---------------|-----------------|
|-0---------------|-5---------------|-8---------------|-5-555-5-888-333-|
|
|Guitar 2
|-----------------|-----------------|-----------------|-----------------|
|-----------------|-----------------|-----------------|-----------------|
|-11--------------|-12--------------|-10--------------|-----------------|
|-----------------|-----------------|-----------------|-----------------|
|--9--------------|-10--------------|--8--------------|-----------------|
|-----------------|-----------------|-----------------|-5-555-5-888-333-|

|-----------------|-----------------|-----------------|----------------------------|
|-----------------|-----------------|-----------------|----------------------------|
|-----------------|-----------------|-----------------|----------------------------|
|-8---------------|-10--------------|-7---------------|----------------------------|
|-8---------------|-10--------------|-7---------------|----------------------------|
|-8---------------|-10--------------|-7---------------|-10-101010-10-111111-111111-|
|
|Guitar 2
|-----------------|-----------------|-----------------|----------------------------|
|-----------------|-----------------|-----------------|----------------------------|
|-7---------------|-9---------------|-9---------------|----------------------------|
|-----------------|-----------------|-----------------|----------------------------|
|-5---------------|-7---------------|-7---------------|----------------------------|
|-----------------|-----------------|-----------------|-10-101010-10-111111-111111-|

_______________________________________________________________________


Verse 3
|-----------------|
|-----------------| x4
|-----------------|
|-----------------|
|-----------------|
|-0-000-0-000-000-|

_______________________________________________________________________


Repeat Verse 1/Chorus

Repeat Verse 2

Repeat Verse 3

Repeat Verse 1/Chorus

_______________________________________________________________________


Verse 4
Guitar 1
|--------------------------------------|----------------------------------------|
|--------------------------------------|----------------------------------------|
|--------------------------------------|--------------------------10------------|
|-----10-----10-----10-----10-----10---|-----10-----10-----10--------------12---|
|--------------------------------------|-----------------------------12p10------|
|-0-0----0-0----0-0----0-0----0-0----0-|-0-0----0-0----0-0----0-0-------------0-|
|
|Guitar 2
|--------------------------------------|----------------------------------------|
|--------------------------------------|----------------------------------------|
|--------------------------------------|--------------------------10------------|
|-----10-----10-----10-----10-----10---|-----10-----10-----10--------------12---|
|--------------------------------------|-----------------------------12p10------|
|-0-0----0-0----0-0----0-0----0-0----0-|-0-0----0-0----0-0----0-0-------------0-|

Guitar 1
|---------------------------------|-------------------------------|
|---------------------------------|-------------------------------|
|---------------------------------|-------------------------------|
|---------------------------------|-------------------------------|
|-----5-----5-----5-----5-----5---|-----8-----8-----8-----7-----8-|
|---3---3-3---3-3---3-3---3-3---5-|---5---5-5---5-5---0p5---0p7---|
|
|Guitar 2
|---------------------------------|----------------------------------|
|---------------------------------|----------------------------------|
|---------------------------------|----------------------------------|
|---------------------------------|----------------------------------|
|-----5-----5-----5-----5-----5---|-----8-----8-----8-----10------12-|
|---3---3-3---3-3---3-3---3-3---5-|---5---5-5---5-5---0p8----0p10----|

_______________________________________________________________________


Breakdown
Guitar 1
|---------------|---------------|---------------|--------------|
|---------------|---------------|---------------|--------------|
|---------------|---------------|---------------|--------------|
|---------------|---------------|---------------|--------------|
|-------0---0---|-------0---0---|-------0---0---|--------------|
|-0-0-0-0-0-0-0-|-0-0-0-0-0-0-0-|-0-0-0-0-0-0-0-|-0h12h15p0h14-|
|
|Guitar 2
|---------------|---------------|---------------|-------------|
|---------------|---------------|---------------|-------------|
|---------------|---------------|---------------|-------------|
|---------------|---------------|---------------|-------------|
|-------0---0---|-------0---0---|-------0---0---|-------------|
|-0-0-0-0-0-0-0-|-0-0-0-0-0-0-0-|-0-0-0-0-0-0-0-|-0h8h12p0h11-|

_______________________________________________________________________


Solo
Guitar 1 (Rhythm)
|---------------|---------------|---------------|--------------|
|---------------|---------------|---------------|--------------| x4
|---------------|---------------|---------------|--------------|
|---------------|---------------|---------------|--------------|
|-------0---0---|-------0---0---|-------0---0---|--------------|
|-0-0-0-0-0-0-0-|-0-0-0-0-0-0-0-|-0-0-0-0-0-0-0-|-0h12h15p0h14-|

Guitar 2 (Lead)
|----------18-------17----|----13-------12----|----------18-------17-------13----|
|-18-17-15----15\14----14\|\11----11\10----10/|-18-17-15----15\14----14\11----10-|
|-------------------------|-------------------|----------------------------------|
|-------------------------|-------------------|----------------------------------|
|-------------------------|-------------------|----------------------------------|
|-------------------------|-------------------|----------------------------------|

  Tr----------------------------------------
|-21-----------18---17---15---14---15---17---18p17p15----------------------------|
|-----------------------------------------------------18p17p15-------------------|
|--------------------------------------------------------------18p16p15----------|
|-----------------------------------------------------------------------17p15p14-|
|--------------------------------------------------------------------------------|
|--------------------------------------------------------------------------------|

|--------|--------|---------------|--------------------------------------------|
|--------|--------|---------------|-----------------------------------10-11-13-|
|-11-----|-12-----|-14-12-10------|--------------------7-9-10-9-10-12----------|
|--------|--------|---------------|-------5-7-8-7-8-10-------------------------|
|--9-----|-10-----|-12-10--8------|-5-7-8--------------------------------------|
|--------|--------|---------------|--------------------------------------------|

_______________________________________________________________________


Octave Verse
Guitar 1
|---------------|---------------|---------------|--------------|
|---------------|---------------|---------------|--------------| x4
|---------------|---------------|---------------|--------------|
|---------------|---------------|---------------|--------------|
|-------0---0---|-------0---0---|-------0---0---|--------------|
|-0-0-0-0-0-0-0-|-0-0-0-0-0-0-0-|-0-0-0-0-0-0-0-|-0h12h15p0h14-|

Guitar 2
|--------|--------|------|--------|--------|------|
|--------|--------|------|--------|--------|------|
|-11-----|-12-----|-14---|-11-----|-12-----|-15---|
|--------|--------|------|--------|--------|------|
|--9-----|-10-----|-12---|--9-----|-10-----|-13---|
|--------|--------|------|--------|--------|------|

_______________________________________________________________________


Repeat Verse 2

Repeat Chorus

Repeat Breakdown

_______________________________________________________________________


That's all guys, please rate :)
comments
print report bad tab
2 comments total.
+1 reply
Ghost Stalker wrote on August 30 2012, 05:43 pm

Looks really good, except during the intro, when the other guitar comes in, it plays its respective hammer-on-pull-off run, so it's harmonised and not the same notes.

Also, in the first bar of "Verse 1/chorus" you have guitar 2 playing the same as guitar 1, when it plays the lower version, as you have tabbed it in the second bar of it.

So, some tiny improvements required, but a great tab other wise. :)

0 reply
slipknot836 wrote on August 31 2012, 06:30 am

My bad, it goes something like this

Verse 1/chorus
Guitar 1
|--------------------------------------------------------------|
|--------------------------------------------------------------|
|--------------------------------------------------------------|
|--------------------------------------------------------------|
|--------------------------------------------------------------|
|-0h12h15-0---0---0h12h15-0---0---0h12h15-0---0---0h12h15p0h14-|
|
|Guitar 2
|----------------------------------------------------------|
|----------------------------------------------------------|
|----------------------------------------------------------|
|----------------------------------------------------------|
|----------------------------------------------------------|
|-0h8h12-0---0---0h8h12-0---0---0h8h12-0---0---0h8h12p0h11-|

And the Intro, just a small mistake xD

I want to post or [tab]
guest
You may want to rate the tab now too:
select rating
Please do not post tabs as comments. Select "correction" instead!