Oops, an error
Loading. Please wait.

Dead And Gone tab

version 1
version 1

Whole song

Interactive

by Trivium
3,424 views 30 this week
no commentswrite comment
1 2 3 4 5
x 6
add to favorites
×
Save as Personal and add changes to this tab that will be seen only by you. Learn more ›
×
You can save this tab as Personal to edit and correct it or add notes. All changes will be seen only by you. Learn more »
launch autoscroll
font size
0
reset
how to read this tab
guitar tuner
edit
Autoscroll
slow
fast
+/-
esc
set tempo
stop
-------------------------------------------------------------------------------
                             DEAD AND GONE - Trivium
-------------------------------------------------------------------------------
Tabbed by: JediMaster123
E-mail: mjd_beef@live.com

Tuning: Drop Ab (7 String)

Enjoy kiddos!

INTRO
 
Rythm 
 Eb|-------------------------------------------------------------------------|
 Bb|-------------------------------------------------------------------------|
 Gb|-------------------------------------------------------------------------|
 Db|-------------------------------------------------------------------------|
 Ab|---------------0--7--0-----------------0--6b(Full)r(6)-------------------|
 Eb|-------------------------------------------------------------------------|
 Ab|------0--3--7-----------7--3--0--3--7------------------------------------|

 Eb|-------------------------------------------------------------------------|
 Bb|-------------------------------------------------------------------------|
 Gb|-------------------------------------------------------------------------|
 Db|-------------------------------------------------------------------------|
 Ab|-------------------------------------------------------------------------|
 Eb|-------------------------------------------------------------------------|
 Ab|--8b(1/4)---0----0--0----0--7b(1/4)---0----0-0-0-0-6b(1/2)---------------|

 Eb|-------------------------------------------------------------------------|
 Bb|-------------------------------------------------------------------------|
 Gb|-------------------------------------------------------------------------|
 Db|-------------------------------------------------------------------------|
 Ab|-------------------------------------------------------------------------|
 Eb|-------------------------------------------------------------------------|
 Ab|--0----0--0----0----0-0-0-0-3b(1/4)---0-0-0-0-3b(1/4)--------------------|

 Eb|-------------------------------------------------------------------------|
 Bb|-------------------------------------------------------------------------|
 Gb|-------------------------------------------------------------------------|
 Db|-------------------------------------------------------------------------|
 Ab|-------------------------------------------------------------------------|
 Eb|-------------------------------------------------------------------------|
 Ab|--8b(1/4)---0----0--0----0--7b(1/4)---0----0---0---6b(1/2)---------------|

 Eb|-------------------------------------------------------------------------|
 Bb|-------------------------------------------------------------------------|
 Gb|-------------------------------------------------------------------------|
 Db|-------------------------------------------------------------------------|
 Ab|-----------------------------0--6----------------------------------------|
 Eb|-------------------------------------------------------------------------|
 Ab|--0----0--0----0----0--3--7----------------------------------------------|


VERSE

Rythm
 Eb|-------------------------------------------------------------------------|
 Bb|-------------------------------------------------------------------------|
 Gb|-------------------------------------------------------------------------|
 Db|----------------------------(TACIT until 0:30)---------------------------|
 Ab|-------------------------------------------------------------------------|
 Eb|-------------------------------------------------------------------------|
 Ab|-------------------------------------------------------------------------|

 Eb|-------------------------------------------------------------------------|
 Bb|-------------------------------------------------------------------------|
 Gb|-------------------------------------------------------------------------|
 Db|-------------------------------------------------------------------------|
 Ab|--8----------------------7----------------6------------------------------|
 Eb|--8----------------------7----------------6------------------------------|
 Ab|--8----0--0--0--0--0--0--7----0--0--0--0--6----0--0--0--0--0--0----------|
                                    ____ 
                                    |2.
 Eb|------------------------------||-------------------------------------|
 Bb|------------------------------||-------------------------------------|
 Gb|------------------------------||-------------------------------------|
 Db|------------------------------||-------------------------------------|
 Ab|----------3------------3------||-----------0--6----------------------|
 Eb|----------3------------3------||-------------------------------------|
 Ab|--0-0-0-0-3----0-0-0-0-3------||--0--3--7----------------------------|

CHORUS

Lead
 Eb|---------------------------------------------|
 Bb|---------------------------------------------|
 Gb|-17-14----16~--14~--16~--17~--16~--14~-------|
 Db|-------14------------------------------------|
 Ab|---------------------------------------------|
 Eb|---------------------------------------------|
 Ab|---------------------------------------------|
Rythm
 Eb|---------------------------------------------|
 Bb|---------------------------------------------|
 Gb|---------------------------------------------|
 Db|---------------------------------------------|
 Ab|---------------------------------------------|
 Eb|---------------------------------------------|
 Ab|--0-0-0-0-0-0-0-0-0-0-0-0-0-0-0-0------------|


Lead
 Eb|---------------------------------------------|
 Bb|------------------------------15~--17~-------|
 Gb|-17-14----16~--14~--16~--17~-----------------|
 Db|-------14------------------------------------|
 Ab|---------------------------------------------|
 Eb|---------------------------------------------|
 Ab|---------------------------------------------|
Rythm
 Eb|---------------------------------------------|
 Bb|---------------------------------------------|
 Gb|---------------------------------------------|
 Db|---------------------------------------------|
 Ab|---------------------------------------------|
 Eb|---------------------------------------------|
 Ab|--3-3-3-3-3-3-3-3-3-3-3-3-3-3-3-3------------|


Lead
 Eb|---------------------------------------------|
 Bb|---------------------------------------------|
 Gb|-17-14----16~--14~--16~--17~--16~--14~-------|
 Db|-------14------------------------------------|
 Ab|---------------------------------------------|
 Eb|---------------------------------------------|
 Ab|---------------------------------------------|
Rythm
 Eb|---------------------------------------------|
 Bb|---------------------------------------------|
 Gb|---------------------------------------------|
 Db|---------------------------------------------|
 Ab|---------------------------------------------|
 Eb|--3-3-3-3-3-3-3-3-3-3-3-3-3-3-3-3------------|
 Ab|---------------------------------------------|


Lead
 Eb|---------------------------------------------|
 Bb|------------------15tr----18tr---------------|
 Gb|--13tr----16tr-------------------------------|
 Db|---------------------------------------------|
 Ab|---------------------------------------------|
 Eb|---------------------------------------------|
 Ab|---------------------------------------------|
Rythm
 Eb|---------------------------------------------|
 Bb|---------------------------------------------|
 Gb|---------------------------------------------|
 Db|---------------------------------------------|
 Ab|---------------------------------------------|
 Eb|--0-0-0-0-0-1-0---------7-7---8-8------------|
 Ab|----------------5-5-5-0-----0----------------|

Lead
 Eb|---------------------------------------------|
 Bb|---------------------------------------------|
 Gb|-17-14----16--14--16--17--16--14~~-----------|
 Db|-------14---14--14--14--14--14---------------|
 Ab|---------------------------------------------|
 Eb|---------------------------------------------|
 Ab|---------------------------------------------|
Rythm
 Eb|---------------------------------------------|
 Bb|---------------------------------------------|
 Gb|---------------------------------------------|
 Db|---------------------------------------------|
 Ab|---------------------------------------------|
 Eb|---------------------------------------------|
 Ab|--0-0-0-0-0-0-0-0-0-0-0-0-0-0-0-0------------|


Lead
 Eb|---------------------------------------------|
 Bb|--------------------------15--17~------------|
 Gb|-17-14----16--14--16--17---------------------|
 Db|-------14---14--14--14--14--14---------------|
 Ab|---------------------------------------------|
 Eb|---------------------------------------------|
 Ab|---------------------------------------------|
Rythm
 Eb|---------------------------------------------|
 Bb|---------------------------------------------|
 Gb|---------------------------------------------|
 Db|---------------------------------------------|
 Ab|---------------------------------------------|
 Eb|---------------------------------------------|
 Ab|--3-3-3-3-3-3-3-3-3-3-3-3-3-3-3-3------------|


Lead
 Eb|---------------------------------------------|
 Bb|---------------------------------------------|
 Gb|-17-14----16--14--16--17--16--14~------------|
 Db|-------14---14--14--14--14--14---------------|
 Ab|---------------------------------------------|
 Eb|---------------------------------------------|
 Ab|---------------------------------------------|
Rythm
 Eb|---------------------------------------------|
 Bb|---------------------------------------------|
 Gb|---------------------------------------------|
 Db|---------------------------------------------|
 Ab|---------------------------------------------|
 Eb|--3-3-3-3-3-3-3-3-3-3-3-3-3-3-3-3------------|
 Ab|---------------------------------------------|


Lead             (First Chorus Ending)           (Second Chorus Ending)
 Eb|---------------------------------||------------------------16t(17)-|
 Bb|------------------17\------------||-----------------17t(18)--------|
 Gb|--13t(14)--16t(17)---------------||--13t(14)-16t(17)---------------|
 Db|---------------------------------||--------------------------------|
 Ab|---------------------------------||--------------------------------|
 Eb|---------------------------------||--------------------------------|
 Ab|---------------------------------||--------------------------------|
Rythm
 Eb|---------------------------------||--------------------------------|
 Bb|---------------------------------||--------------------------------|
 Gb|---------------------------------||--------------------------------|
 Db|---------------------------------||--------------------------------|
 Ab|---------------------------------||--------------------------------|
 Eb|----------------------------12\--||--------------------------------|
 Ab|--7-7-7-5-5-5-3-3--7-------------||--7-7-7-5-5-5-3-3--7-----5------|


POST CHORUS 


Lead
 Eb|------------------------------------------------------------|
 Bb|------------------------------------------------------------|
 Gb|--9----------------------8-----------------5----------------|
 Db|--x----------------------x-----------------x----------------|
 Ab|--7----------------------6-----------------3----------------|
 Eb|------------------------------------------------------------|
 Ab|------------------------------------------------------------|
Rythm
 Eb|------------------------------------------------------------|
 Bb|------------------------------------------------------------|
 Gb|------------------------------------------------------------|
 Db|------------------------------------------------------------|
 Ab|------------------------------------------------------------|
 Eb|------------------------------------------------------------|
 Ab|--8b(1/4)---0----0--0----0--7b(1/4)---0----0-0-0-0-6b(1/2)--|

Lead
 Eb|------------------------------------------------------------|
 Bb|------------------------------------------------------------|
 Gb|------------------------------------------------------------|
 Db|--9----------------7----------------------------------------|
 Ab|--x----------------x----------------------------------------|
 Eb|--7----------------5----------------------------------------|
 Ab|------------------------------------------------------------|
Rythm
 Eb|------------------------------------------------------------|
 Bb|------------------------------------------------------------|
 Gb|------------------------------------------------------------|
 Db|------------------------------------------------------------|
 Ab|------------------------------------------------------------|
 Eb|------------------------------------------------------------|
 Ab|--0----0--0----0----0-0-0-0-3b(1/4)---0-0-0-0-3b(1/4)-------|

Lead
 Eb|------------------------------------------------------------|
 Bb|------------------------------------------------------------|
 Gb|--9----------------------8-----------------5----------------|
 Db|--x----------------------x-----------------x----------------|
 Ab|--7----------------------6-----------------3----------------|
 Eb|------------------------------------------------------------|
 Ab|------------------------------------------------------------|
Rythm
 Eb|------------------------------------------------------------|
 Bb|------------------------------------------------------------|
 Gb|------------------------------------------------------------|
 Db|------------------------------------------------------------|
 Ab|------------------------------------------------------------|
 Eb|------------------------------------------------------------|
 Ab|--8b(1/4)---0----0--0----0--7b(1/4)---0----0-0-0-0-6b(1/2)--|

Lead
 Eb|----------------------------------------|
 Bb|----------------------------------------|
 Gb|----------------------------------------|
 Db|--9-------7-----------------------------|
 Ab|--x-------x-----------------------------|
 Eb|--7-------5-----------------------------|
 Ab|----------------------------------------|
Rythm
 Eb|----------------------------------------|
 Bb|----------------------------------------|
 Gb|----------------------------------------|
 Db|----------------------------------------| 
 Ab|-----------------------------0--6-------|
 Eb|----------------------------------------|
 Ab|--0----0--0----0----0--3--7-------------| 


BRIDGE

Lead 
 Eb|--13---------------------------------------------------------------|
 Bb|---x---------------------------------------------------------------|
 Gb|--10---------------------------------------------------------------|
 Db|-------------------------------------------------------------------|
 Ab|-------------------------------------------------------------------|
 Eb|-------------------------------------------------------------------|
 Ab|-------------------------------------------------------------------|
Rythm
 Eb|-------------------------------------------------------------------|
 Bb|-------------------------------------------------------------------|
 Gb|-------------------------------------------------------------------|
 Db|-------------------------------------------------------------------|
 Ab|-------------------------------------------------------------------|
 Eb|--1-1-1-1-1-1-1-1-1-1-1-1-0-0-0-0----------------------------------|
 Ab|----------------------------------5-5-5-5-5-5-5-5-5-5-5-5-3-3-5-3--|

Lead 
 Eb|-------------------------------------------------------------------|
 Bb|-------------------------------------------------------------------|
 Gb|-------------------------------------------------------------------|
 Db|-------------------------------------------------------------------|
 Ab|-------------------------------------------------------------------|
 Eb|-------------------------------------------------------------------|
 Ab|-------------------------------------------------------------------|
Rythm
 Eb|-------------------------------------------------------------------|
 Bb|-------------------------------------------------------------------|
 Gb|-------------------------------------------------------------------|
 Db|-------------------------------------------------------------------|
 Ab|-------------------------------------------------------------------|
 Eb|--0-0-0-0-0-0-0-0-0-0-0-0------------------------------------------|
 Ab|--------------------------2-3-2-2-0-0-0-0-0-0-0-0-3-0-2-2-3-3-3-3--|

Lead 
 Eb|-------------------------------------------------------------------|
 Bb|-------------------------------------------------------------------|
 Gb|-------------------------------------------------------------------|
 Db|-------------------------------------------------------------------|
 Ab|-------------------------------------------------------------------|
 Eb|-------------------------------------------------------------------|
 Ab|-------------------------------------------------------------------|
Rythm
 Eb|-------------------------------------------------------------------|
 Bb|-------------------------------------------------------------------|
 Gb|-------------------------------------------------------------------|
 Db|-------------------------------------------------------------------|
 Ab|-------------------------------------------------------------------|
 Eb|--1-1-1-1-1-1-1-1-1-1-1-1-0-0-0-0----------------------------------|
 Ab|----------------------------------5-5-5-5-5-5-5-5-5-5-5-5-3-3-5-3--|

Lead 
 Eb|--------------------------------------------------------19---------|
 Bb|--------------------------------------------9--------21------------|
 Gb|-----------------------------------------9--------21---------------|
 Db|--------------------------------------9--------21------------------|
 Ab|----------------------------------11-------------------------------|
 Eb|-------------------------------------------------------------------|
 Ab|-------------------------------------------------------------------|
Rythm
 Eb|-------------------------------------------------------------------|
 Bb|-------------------------------------------------------------------|
 Gb|-------------------------------------------------------------------|
 Db|-------------------------------------------------------------------|
 Ab|--------------------------0-0-0-0-------------0-0-2-2-2-2----------|
 Eb|--0-0-0-0-0-0-0-0-0-0-0-0---------4-4-4-4-4-4-------------0--------|
 Ab|-------------------------------------------------------------------|


SOLO

Lead 
 Eb|----------------------19-20------------------------------------------------|
 Bb|-21b(1/2)rb(1/2)---22------22-20-18-20-18-17-------------------------------|
 Db|--------------------------------------------19-17-19b(Full)-19-17-19b(1/2)-|
 Ab|---------------------------------------------------------------------------|
 Eb|---------------------------------------------------------------------------|
 Ab|---------------------------------------------------------------------------|
Rythm 
 Eb|---------------------------------------------------------------------------|
 Bb|---------------------------------------------------------------------------|
 Gb|---------------------------------------------------------------------------|
 Db|---------------------------------------------------------------------------|
 Ab|--8-----------------------7----------------------6-------------------------|
 Eb|--8-----------------------7----------------------6-------------------------|
 Ab|--8-----0--0--0--0--0--0--7----0---0---0---0-----6-------------------------|

Lead T        T        T     T        T        T
 Eb|---------------------------------------------------|
 Bb|-22-16h17-22-16h17-22-17-22-16h17-22-16h17-22-17---|
 Gb|---------------------------------------------------|
 Db|---------------------------------------------------|
 Ab|---------------------------------------------------|
 Eb|---------------------------------------------------|
 Ab|---------------------------------------------------|
Rythm
 Eb|---------------------------------------------------|
 Bb|---------------------------------------------------|
 Gb|---------------------------------------------------|
 Db|---------------------------------------------------|
 Ab|-(6)-----------------------------------------------|
 Eb|-(6)-----------------------------------------------|
 Ab|-(6)----0-----0----0----0----0----0----0-----------|

Lead  T        T 
 Eb|------------------------------------|
 Bb|--22-16h17-22-16h17p16--------------|
 Gb|-----------------------17-19b(1/2)--|
 Db|------------------------------------|
 Ab|------------------------------------|
 Eb|------------------------------------|
 Ab|------------------------------------|
Rythm
 Eb|------------------------------------|
 Bb|------------------------------------|
 Gb|------------------------------------|
 Db|------------------------------------|
 Ab|--------------3------------------3--|
 Eb|--------------3------------------3--|
 Ab|--0--0--0--0--3------0--0--0--0--3--|

Lead                                     N
 Eb|------------------------------------------------------5-----------|
 Bb|------------------------------------------5-----------------------|
 Gb|-/14--13--14~--10--9--10~--5--4--5--5+------8-7-5-7-8---8-7-5-7-8-|
 Db|------------------------------------------------------------------|
 Ab|------------------------------------------------------------------|
 Eb|------------------------------------------------------------------|
 Ab|------------------------------------------------------------------|
Rythm 
 Eb|------------------------------------------------------------------|
 Bb|------------------------------------------------------------------|
 Gb|------------------------------------------------------------------|
 Db|------------------------------------------------------------------|
 Ab|--8----------------------7----------------6-----------------------|
 Eb|--8----------------------7----------------6-----------------------|
 Ab|--8----0--0--0--0--0--0--7----0--0--0--0--6----0--0--0--0--0--0---|

Lead 
 Eb|----------------------------10tr-13tr-/17~~-(17)\----|
 Bb|-------------------9tr-12tr--------------------------|
 Gb|---------7tr-10tr------------------------------------|
 Db|-6tr-9tr---------------------------------------------|
 Ab|-----------------------------------------------------|
 Eb|-----------------------------------------------------|
 Ab|-----------------------------------------------------|
Rythm
 Eb|-----------------------------------------------------|
 Bb|-----------------------------------------------------|
 Gb|-----------------------------------------------------|
 Db|-----------------------------------------------------|
 Ab|-------------------2-----3-----2---------------------|
 Eb|--5-----4-----5----------------------4-------5-------|
 Ab|-----------------------------------------------------|


POST SOLO

Rythm
 Eb|---------------------------------------------------------------------------|
 Bb|---------------------------------------------------------------------------|
 Gb|---------------------------------------------------------------------------|
 Db|---------------------------------------------------------------------------|
 Ab|--0--0--0--0-------3--3--3--3-------10-10-10-10----------------------------|
 Eb|--0--0--0--0-------3--3--3--3-------10-10-10-10----------------------------|
 Ab|--0--0--0--0-------3--3--3--3-------10-10-10-10----7-7-7-7-7-7-7-7-7-7-7-7-|

OUTRO

Rythm
 Eb|-------------------------------------------------------------------------|
 Bb|-------------------------------------------------------------------------|
 Gb|-------------------------------------------------------------------------|
 Db|-------------------------------------------------------------------------|
 Ab|-------------------------------------------------------------------------|
 Eb|-------------------------------------------------------------------------|
 Ab|--8b(1/4)---0----0--0----0--7b(1/4)---0----0-0-0-0-6b(1/2)---------------|

 Eb|-------------------------------------------------------------------------|
 Bb|-------------------------------------------------------------------------|
 Gb|-------------------------------------------------------------------------|
 Db|-------------------------------------------------------------------------|
 Ab|-------------------------------------------------------------------------|
 Eb|-------------------------------------------------------------------------|
 Ab|--0----0--0----0----0-0-0-0-3b(1/4)---0-0-0-0-3b(1/4)--------------------|

 Eb|-------------------------------------------------------------------------|
 Bb|-------------------------------------------------------------------------|
 Gb|-------------------------------------------------------------------------|
 Db|-------------------------------------------------------------------------|
 Ab|-------------------------------------------------------------------------|
 Eb|-------------------------------------------------------------------------|
 Ab|--8b(1/4)---0----0--0----0--7b(1/4)---0----0---0---6b(1/2)---------------|

 Eb|-------------------------------------------------||
 Bb|-------------------------------------------------||
 Gb|-------------------------------------------------||
 Db|-------------------------------------------------||x2
 Ab|-----------------------------2--3--2-------------||
 Eb|--------------------5--4--5-----------4--5-------||
 Ab|--0----0--0----0----------------------------3----||

 Eb|--------------------------|
 Bb|--------------------------|
 Gb|--------------------------|
 Db|--------------------------|
 Ab|--0--0--0--0--------------|
 Eb|--0--0--0--0--------------|
 Ab|--0--0--0--0--------------|

Rate and enjoy!


************************************

| /   slide up
| \   slide down
| h   hammer-on
| p   pull-off
| ~   vibrato
| +   harmonic
| x   Mute note
| b   Bend
| pb  Pre-bend
| br  Bend release
| pbr Pre-bend release
| brb Bend release bend

************************************

            
            
Suggest correction
Creating personal tab
Creating personal tab
You can edit any tab online and save it as your Personal.

You can edit, replace or remove any tab part or add personal notes – all changes will be seen only by you.

Personal tabs can be accessed anytime from any device, even offline.
Learn more »
comments
print report bad tab
guest
You may want to rate the tab now too:
select rating
Wanna post a correction for this tab? Suggest correction