Oops, an error
Loading. Please wait.

Declaration Tab

version 1
version 1

Whole song

Interactive

9,336 views 3 this week
16 commentsread comments
1 2 3 4 5
x 5
add to favorites
launch autoscroll
font size
0
reset
how to read this tab
guitar tuner
Autoscroll
slow
fast
+/-
esc
set tempo
stop
Help us to improve Ultimate-Guitar.com Take our survey!
×
Author
Difficulty
Tuning
intermediate
D A D G B E
-------------------------------------------------------------------------------
                             Declaration - Trivium
-------------------------------------------------------------------------------

Tuning: Drop D (DADGBe)

This isn't the whole song, I tabbed it up to the solo. After that, it's hard to
hear exactly what the guitar's doing until it returns back to the main theme.
If you see any mistakes, email or comment so they can be corrected.


Intro (guitar 1)                                                Repeat  4x
e|---------------------------------------------------------------------------|
B|---------------------9-10-9------------------------------------------------|
G|-----9-----9-----9----------9--------------------------6-9-6-7-------------|
D|-6-7---6-7---6-7---9----------9-11-----------------7-9---------9-----------|
A|------------------------------------7-99-7-99-7-99-------------------------|
D|---------------------------------------------------------------------------|

Intro (guitar 2, comes in after guitar one plays the riff twice, played slowly)
e|---------------------------------------------------------------------------|
B|------------------------------------10-9-----------------------------------|
G|--------9-7-6----------------9-7-6-------9---------------------------------|
D|-6-7-6---------6-7~----6-7-6-----------------------------------------------|
A|---------------------------------------------------------------------------|
D|---------------------------------------------------------------------------|

Both guitars:
e|---------------------|
B|---------------------|
G|---11------13--------|
D|---------------------|
A|---9-------11--------|
D|---------------------|


Guitar 1 (very hard riff to play, and I'm pretty sure this isn't 100% right, but it's close)
                                                                Repeat 2x
e|---------------------------------------------------------------------------|
B|---------------------------------------------------------------------------|
G|---------------------------------------------------------------------------|
D|---------------------------------------------------------------------------|
A|-4h5h7-------------5h7h8-------7h8h10--------8h9h11------------------------|
D|-------0000000000--------0000---------000000-------------------------------|



Both Guitars:
e|---------------------------------------------------------------------------|
B|---------------------------------------------------------------------------|
G|---------------------------------------------------------------------------|
D|--0h2-------------------2h4------------------------------------------------|
A|--------------------3h5----------------------------------------------------|
D|-------1111111111------------4444444444444---------------------------------|

Both guitars repeat the above parts twice. Then:


Both guitars:
e|--------------------------------------------------------------------------------|
B|--------------------------------------------------------------------------------|
G|--------------------------------------------------------------------------------|
D|-0-------------------7-6----------6-7-6-7--2/4--------2/4-----------------------|
A|-0-------------------5-4----------4-5-4-5--2/4--------2/4-----------------------|
D|-0-000000000000-4-00-----00000000----------2/4-444444-2/4-44444444--------------|



Guitar 1 then plays:
e|------------------------------------------------|
B|------------------------------------------------|
G|------------------------------------------------|
D|-------------4h5h7-------4h5h7-4h5h7--777777----|
A|-------4h5h7-------4h5h7------------------------|
D|-4h5h7------------------------------------------|
 |                                                |
 |                                                |
 | While guitar 2 plays:                          |
e|------------------------------------------------|
B|------------------------------------------------|
G|-------------------------------4h6p4--666666----|
D|-------------4h5h7-------4h5h7------------------|
A|-------4h5h7-------4h5h7------------------------|
D|-4h5h7------------------------------------------|

Repeat both these parts again.


Then it goes back to the part right after the intro and plays through to here.
Then you play: (The strumming might not be entirely right, but these are the chords)


e|------------------------------------------------------------------------------|
B|------------------------------------------------------------------------------|
G|--11-11-11-11-11-11-11-11-11-11-9-9-9-9-9-9-9-13-13-13-14-14-14-14------------|
D|------------------------------------------------------------------------------|
A|--9-9-9-9-9-9-9-9-9-9-9-9-9-9-9-7-7-7-7-7-7-7-11-11-11-12-12-12-12------------|
D|------------------------------------------------------------------------------|

e|------------------------------------------------------------------------------|
B|------------------------------------------------------------------------------|
G|--18-18-18-18-----18-18-18-18-18----18-18-18--------9-----9-----9-----9-----9-|
D|------------------------------------------------6-7---6-7---6-7---6-7---6-7---|
A|--16-16-16-16-----16-16-16-16-16----16-16-16----------------------------------|
D|------------------------------------------------------------------------------|

Repeat that whole riff again, then some easy chords:


e|--------------------|
B|--------------------|
G|--------------------|
D|-0---4---0---7------|
A|-0---4---0---7------|
D|-0---4---0---7------|



Then it goes into the solo, and I'm not entirely sure about the rest of the song from 
this point. It eventually goes into a 

e|------------------------------------------------------|
B|------------------------------------------------------|
G|------------------------------------------------------|
D|------------------------------------------------------|
A|------------------------------------------------------|
D|--55555666644--55566644---555555566666444--55566644---|


and then back into the main part. 





| /  slide up
| \  slide down
| h  hammer-on
| p  pull-off
| ~  vibrato
| +  harmonic
| x  Mute note
===============================================================================
Suggest correction
comments
print report bad tab
16 comments total. Showing first comments.
0 reply
METSOAD 1,622 Mar 06, 2006 09:23 AM

YOU ARE DEAF, I AM A BASS PLAYER SO I CAN'T TAB IT OUT, PLEASE GET THE REST

0 reply
sam b 10,069 Mar 06, 2006 12:44 PM

How is he deaf!!?!!?!?

0 reply
XguitaristboiX 10 Apr 21, 2006 12:40 AM

the verse is off

the second guitar in the intro is like this

-------------------------------------------------|
--------------------------------------10-9-------|
------------------------------------------9------|
-----9-7-6h7p6--------------9-7-6h7p6------------|
6-7-6---------6-7(lr)--6-7-6---------------------|
-------------------------------------------------|

guest
You may want to rate the tab now too:
select rating
Wanna post a correction for this tab? Suggest correction