Oops, an error
Loading. Please wait.

Demon Tab

version 1
version 1

Whole song

Interactive

4,387 views 6 this week
7 commentsread comments
1 2 3 4 5
x 3
add to favorites
launch autoscroll
font size
0
reset
how to read this tab
guitar tuner
Autoscroll
slow
fast
+/-
esc
set tempo
stop
Help us to improve Ultimate-Guitar.com Take our survey!
×
Author
Difficulty
intermediate
band- trivium
song-demon
album-demo cd...      tabbed by dupsidolittle

e|--------------|
B|--------------|
G|--------------|
D|2--11-10-9----| repeat a couple times then
A|2--9--8--7----|
E|0-------------|

e|------------------------------------------------|
B|------------------------------------------------|
G|----------------------------------------  play--| 2x
D|2-----------------2----------4-5-8-7-5-4--------|
A|2-/7-6------------2-/7-6-----4-5-8-7-5-4--------|
E|0------6-7-2-3-6--0------6-7-2-3-6-5-3-2--------|

e|--------------------------------------------|
B|--------------------------------------------|
G|--------------------------------------------|
D|--------------------------------------------|
A|--/7-6--------------/7-6--------------------|
E|0------6-7-2-3-6--0------6-7--2-3-6-5-3-2-0-|

e|--------------------------------|
B|--------------------------------|
G|----9/8-------------------------|
D|----9/8-----8/9-----4/5-5/4-4/5-|
A|----7/6-----8/9-----4/5-5/4-4/5-|
E|000-----000-6/7-000-2/3-3/2-2/3-|

e|-----------------------|
B|-----------------------|
G|----9/8----------------|
D|----9/8-----8/9--45-43-|
A|----7/6-----8/9--45-43-|
E|000-----000-6/7--23-21-|

n thats all i got so far....the rest is commin
Suggest correction
Give kudos to tab author, rate the tab!
1 2 3 4 5
comments
print report bad tab
7 comments total. Showing first comments.
0 reply
geetar_man0 480 Aug 31, 2006 08:55 AM

hey man nice tab...obviously not many ppl herd this song....i was figuring out little bits and i know the start of the solo is like this
|------------------------|
|------------------------|
|------------------------|
|---------------9-8~~~~--|
|-7~~~~--7-9-10----------|
|------------------------|

i think it jsut does the same shape but moves around the fretboard

if i get any more ill tab it out

0 reply
geetar_man0 480 Aug 31, 2006 09:00 AM

oh and the breakdown bit goes like this
|---------------------------------------|
|---------------------------------------|
|---------------------------------------|
|-2-----3-----2-------------------------|
|-2-----1-----2-------------2-5-8-7-4---|
|-0-----------0----0-0--0-0-0-3-6-5-2---|

0 reply
thrice_1989 197 Aug 31, 2006 10:52 PM

hey ....awesome thanks guys!......n i do know the first part of the solo....i figured it out but i dont know anymore then that so i ddnt tab it lol....

guest
You may want to rate the tab now too:
select rating
Wanna post a correction for this tab? Suggest correction