Oops, an error
Loading. Please wait.

Demon tab

version 2
version 2

Whole song

Interactive

by Trivium
355 views 1 this week
no commentswrite comment
1 2 3 4 5
2 more votes to show rating
add to favorites
×
Save as Personal and add changes to this tab that will be seen only by you. Learn more ›
×
You can save this tab as Personal to edit and correct it or add notes. All changes will be seen only by you. Learn more »
launch autoscroll
font size
0
reset
how to read this tab
guitar tuner
edit
Autoscroll
slow
fast
+/-
esc
set tempo
stop
Author
-------------------------------------------------------------------------------
                             Demon - Trivium
-------------------------------------------------------------------------------
Tabbed by: Martinoob
E-mail: Martin1990991@gmx.de

Tuning: EADGBE


0:00-0:06

guitar 1 
E|---------------------------------------|
B|---------------------------------------|
G|---------------------------------------|
D|-2~~-----------------------------------|   
A|-2~~-----------------------------------|
E|-0~~-----------------------------------|

guitar 2 
E|---------------------------------------|
B|---------------------------------------|
G|---------------------------------------|
D|-2-------------------------------------|
A|-2-------/----9----\----8----\----5----|
E|-0-------/----7----\----6----\----3----|



0:06-0:09

guitar 1 
E|---------------------------------------|
B|---------------------------------------|
G|---------------------------------------|
D|-2~~-----------------------------------|
A|-2~~-----------------------9---9-9-8---|
E|-0~~-----------------------7---7-7-6---|

guitar 2 
E|---------------------------------------|
B|---------------------------------------|
G|---------------------------------------|
D|-2-------------------------------------|
A|-2-------/----9----\----5----/----8----|
E|-0-------/----7----\----3----/----6----|



0:16-0:21

guitar 1 
E|---------------------------------------|
B|---------------------------------------|
G|---------------------------------------|
D|-2~~-----------------------------------|   
A|-2~~-----------------------------------|
E|-0~~-----------------------------------|

guitar 2 
E|---------------------------------------|
B|---------------------------------------|
G|---------------------------------------|
D|-2-------------------------------------|
A|-2-------/----9----\----5----/----8----|
E|-0-------/----7----\----3----/----6----|


both guitars
E|---------------------------------------|
B|---------------------------------------|
G|---------------------------------------|
D|-2~~-----------------------------------|   
A|-2~~-----------------------------------|
E|-0~~-----------------------------------|



0:21-0:30

guitar 1
E|-----------------------------|
B|-----------------------------|
G|-----------------------------|
D|-2---------------------------|
A|-2---/7--6~---------------1--|
E|-0-----------6--7--2--3------|

guitar 2 
E|-----------------------------|
B|-----------------------------|
G|-----------------------------|
D|-2~~----------------------1--|
A|-2~~-------------------------|
E|-0~~-------------------------|


guitar 1
E|-------------------------------------|
B|-------------------------------------|
G|-------------------------------------|
D|-2-----------------------------------|
A|-2---/7--6~--------4--5--8--7--5--4--|
E|-0-----------6--7--2--3--6--5--3--2--|

guitar 2 
E|-------------------------------------|
B|-------------------------------------|
G|-------------------------------------|
D|-2-----------------------------------|
A|-2-----------------4--5--8--7--5--4--|
E|-0-----------------2--3--6--5--3--2--|



0:30-0:40

both guitars
E|-----------------------------|       
B|-----------------------------|      
G|-----------------------------|
D|-2---------------------------|
A|-2---/7--6----------------1--|
E|-0-----------6--7--2--3------|
      
                                 
E|--------------------------------|      
B|--------------------------------|
G|--------------------------------|
D|-2------------------------------|      
A|-2---/7--6----------------------|
E|-0-----------6--7--2-3-6-5-3-2--|



0:40-0:51

guitar 1
E|-----------------------------|       
B|-----------------------------|      
G|-----------------------------|
D|-2---------------------------|
A|-2---/7--6----------------1--|
E|-0-----------6--7--2--3------|

guitar 2
E|---------------------------------|       
B|---------------------------------|      
G|---------------------------------|
D|-2-------------------------------|
A|-2---/7--6--/10-9--12--10--9--7--|
E|-0-------------------------------|


guitar 1 
E|--------------------------------|
B|--------------------------------|
G|--------------------------------|
D|-2------------------------------|
A|-2----7--6----------------------|
E|-0-----------6--7--2-3-6-5-3-2--|

guitar 2 
E|--------------------------------|
B|--------------------------------|
G|--------------------------------|
D|-2------------------------------|
A|-2----7--6----------------------|
E|-0-----------6--7--2-3-6-5-3-2--|


guitar 1 
E|-----------------------------|       
B|-----------------------------|      
G|-----------------------------|
D|-2---------------------------|
A|-2---/7--6----------------1--|
E|-0-----------6--7--2--3------|

guitar 2 
E|-----------------------------|
B|-----------------------------|
G|-----------------------------|
D|-2---/5--4-------------------|
A|-2-----------6--7---------6--|
E|-0-----------------6--7------|


guitar 1 
E|--------------------------------|       
B|--------------------------------|      
G|--------------------------------|
D|-2------------------------------|
A|-2---/7--6----------------------|
E|-0-----------6--7--2-3-6-5-3-2--|

guitar 2 
E|--------------------------------|
B|--------------------------------|
G|--------------------------------|
D|-2---/5--4----------------------|
A|-2-----------6--7---------------|
E|-0-----------------6-7-10-9-7-6-|



0:51-1:10

both guitars
E|----------------------------------------------------------|
B|----------------------------------------------------------|
G|----------------------------------------------------------|
D|--------9-\-8---------------------------------------------|
A|--------7-\-6---------8-/-9---------4-/-5---5-\-4---4-/-5-|
E|-0-0-0---------0-0-0--6-/-7--0-0-0--2-/-3---3-\-2---2-/-3-|


E|----------------------------------------------------------|
B|----------------------------------------------------------|
G|----------------------------------------------------------|
D|--------9-\-8---------------------------------------------|    
A|--------7-\-6---------8-/-9---4------5-------------4---3--|
E|-0-0-0---------0-0-0--6-/-7---2------3-------------2---1--|



1:10-1:16

guitar 1 
E|----------------------------------------------------------------|
B|----------------------------------------------------------------|
G|----------------------------------------------------------------|
D|----------------------------------------------------------------|
A|----------------------------------------------------------------|
E|-2-3-3---3-2-2---2-3-3---3-2-2---2-6-6---6-5-5---5-3-3---3-2-2--|

guitar 2 
E|----------------------------------------------------------------|
B|----------------------------------------------------------------|
G|----------------------------------------------------------------|
D|----------------------------------------------------------------|
A|---------------------------------------------------------4~-----|
E|-2-3-3---3-2-2---2-3-3---3-2-2---2-6-6---6-5-5---5-3-3----------|
                                                           p.h

both guitars 
E|----------------------------------------------------------------|
B|----------------------------------------------------------------|
G|----------------------------------------------------------------|
D|----------------------------------------------------------------|
A|----------------------------------4-----5---------------4----3--|
E|-2-3-3---3-2-2---2-3-3---3-2-2----2-----3---------------2----1--|



1:26-1:32

guitar 1 
E|----------------------------------------------------------------|
B|----------------------------------------------------------------|
G|----------------------------------------------------------------|
D|----------------------------------------------------------------|
A|----------------------------------------------------------------|
E|-2-3-3---3-2-2---2-3-3---3-2-2---2-6-6---6-5-5---5-3-3---3-2-2--|

guitar 2 
E|----------------------------------------------------------------|
B|----------------------------------------------------------------|
G|----------------------------------------------------------------|
D|----------------------------------------------------------------|
A|---------------------------------------------------------4------|
E|-2-3-3---3-2-2---2-3-3---3-2-2---2-6-6---6-5-5---5-3-3----------|
                                                           p.h

guitar 1 
E|----------------------------------------------------------------|
B|----------------------------------------------------------------|
G|----------------------------------------------------------------|
D|----------------------------------------------------------------|
A|----------------------------------------------------------------|
E|-2-3-3---3-2-2---2-3-3---3-2-2---2-6-6---6-5-5---5-3-3---3-2-2--|

guitar 2 
E|-------------------------------------------------------------------|
B|-------------------------------------------------------------------|
G|-------------------------------------------------------------------|
D|-------------------------------------------------------------------|
A|-------------------------------------------------------------------|
E|-2-3-3---3-2-2---2-3-3---3-2-2---2/10-10---10-9-9---9-9-7---7-6-6--|



1:32-1:38

guitar 1   
E|----------------------------------------------------------------|
B|----------------------------------------------------------------|
G|----------------------------------------------------------------|
D|----------------------------------------------------------------|    
A|----------------------------------------------------------------|
E|-2-3-3---3-2-2---2-3-3---3-2-2---2-6-6---6-5-5---5-3-3---3-2-2--|

guitar 2   
E|-------------------------------------------------------------------|
B|-------------------------------------------------------------------|
G|-------------------------------------------------------------------|
D|-------------------------------------------------------------------|    
A|-------------------------------------------------------------------|
E|-6-7-7---7-6-6---6-7-7---7-6-6---7/10-10---10-9-9---9-9-7---7-6-6--|



1:38-1:40

both guitars
E|--------------------------------|
B|--------------------------------|
G|--------------------------------|
D|--------------------------------|
A|--------------------------------|
E|-3-2-0---3-2-0---3-2-0---0-2-3--|



1:40-1:51

both guitars 

E|--------------------------------|
B|--------------------------------|
G|--------------------------------|
D|--------9\8-------4-----8---8---|
A|--------7\6-------2-----6---6---|
E|-0-0-0-------0-0-----0----------|


E|--------------------------------|
B|--------------------------------|
G|--------------------------------|
D|--------9\8-------4-----8---8---|
A|--------7\6-------2-----6---6---|
E|-0-0-0-------0-0-----0----------|


E|--------------------------------|
B|--------------------------------|
G|--------------------------------|
D|--------9\8-------4-----8---8---|
A|--------7\6-------2-----6---6---|
E|-0-0-0-------0-0-----0----------|


E|--------------------------------|
B|--------------------------------|
G|--------------------------------|
D|--------------------------------|
A|--------------------------------|
E|-3-2-0---3-2-0---3-2-0---0-2-3--|



2:03-2:15

both guitars
E|----------------------------------------------------------|
B|----------------------------------------------------------|
G|----------------------------------------------------------|
D|-2~~------------------------------------------------------|    
A|-2~~------------------------------------------------------|
E|-0~~------------------------------------------------------|


guitar 1
E|----------------------------------------------------------|
B|----------------------------------------------------------|
G|----------------------------------------------------------|
D|-8~~------------------------------------------------------|    
A|-6~~------------------------------------------------------|
E|-6~~------------------------------------------------------|

guitar 2
E|----------------------------------------------------------|
B|----------------------------------------------------------|
G|----------------------------------------------------------|
D|-8~~------------------------------------------------------|    
A|-6~~---------------------------------------------7---8----|
E|-6~~------------------------------------------------------|


both guitars
E|----------------------------------------------------------|
B|----------------------------------------------------------|
G|----------------------------------------------------------|
D|-2~~------------------------------------------------------|    
A|-2~~------------------------------------------------------|
E|-0~~------------------------------------------------------|


E|----------------------------------------------------------|
B|----------------------------------------------------------|
G|----------------------------------------------------------|
D|-2--2------2--2-----2------3------7------6------3---------|    
A|-2--2------2--2-----2------3------7------6------3---------|
E|-0--0------0--0-----0------1------5------4------1---------|



2:15-2:42 (rythm)

E|----------------------------------------------------------|
B|----------------------------------------------------------|
G|----------------------------------------------------------|
D|-2~~------------------------------------------------------|    
A|-2~~------------------------------------------------------|
E|-0~~------------------------------------------------------|


E|----------------------------------------------------------|
B|----------------------------------------------------------|
G|----------------------------------------------------------|
D|-/8~~-----------------------------------------------------|    
A|-/8~~-----------------------------------------------------|
E|-/6~~-----------------------------------------------------|


E|----------------------------------------------------------|
B|----------------------------------------------------------|
G|----------------------------------------------------------|
D|-2~~------------------------------------------------------|    
A|-2~~------------------------------------------------------|
E|-0~~------------------------------------------------------|


E|----------------------------------------------------------|
B|----------------------------------------------------------|
G|----------------------------------------------------------|
D|-/8~~---------------------------------------------x---x---|    
A|-/6~~---------------------------------------------x---x---|
E|-/6~~---------------------------------------------x---x---|


E|----------------------------------------------------------|
B|----------------------------------------------------------|
G|----------------------------------------------------------|
D|-2~~------------------------------------------------------|    
A|-2~~------------------------------------------------------|
E|-0~~------------------------------------------------------|


E|----------------------------------------------------------|
B|----------------------------------------------------------|
G|----------------------------------------------------------|
D|-8~~------------------------------------------------------|    
A|-8~~------------------------------------------------------|
E|-6~~------------------------------------------------------|


E|----------------------------------------------------------|
B|----------------------------------------------------------|
G|----------------------------------------------------------|
D|-2~~------------------------------------------------------|    
A|-2~~------------------------------------------------------|
E|-0~~------------------------------------------------------|


E|----------------------------------------------------------|
B|----------------------------------------------------------|
G|----------------------------------------------------------|
D|-/8~~-----------------------------------------------------|    
A|-/6~~-----------------------------------------------------|
E|-/6~~-----------------------------------------------------|


E|----------------------------------------------------------|
B|----------------------------------------------------------|
G|----------------------------------------------------------|
D|-2~~----------------------------------------------x---x---|    
A|-2~~----------------------------------------------x---x---|
E|-0~~----------------------------------------------x---x---|


E|----------------------------------------------------------|
B|----------------------------------------------------------|
G|----------------------------------------------------------|
D|-8~~------------------------------------------------------|    
A|-8~~------------------------------------------------------|
E|-6~~------------------------------------------------------|


E|----------------------------------------------------------|
B|----------------------------------------------------------|
G|----------------------------------------------------------|
D|-2~~------------------------------------------------------|    
A|-2~~------------------------------------------------------|
E|-0~~------------------------------------------------------|


E|----------------------------------------------------------|
B|----------------------------------------------------------|
G|----------------------------------------------------------|
D|-/8~~-----------------------------------------------------|    
A|-/6~~-----------------------------------------------------|
E|-/6~~-----------------------------------------------------|



2:15-2:32 (solo part 1)

E|-----------------------------------------------------------------|
B|-------------------------------------------------------12-11~~~--|
G|----------------------------------10-9~~~------9-11-12-----------|
D|----------------9-8~~~----8-10-11--------------------------------|
A|--7~~~---7-9-10--------------------------------------------------|
E|-----------------------------------------------------------------|


E|-----------------------------------------------------------------|
B|--/18-17~~~----\11--12--11h12p11-----12-11-----------------------|
G|---------------------------------12--------11-12~-12------11-----|
D|--------------------------------------------------p.h--14----13--|
A|-----------------------------------------------------------------|
E|-----------------------------------------------------------------|


E|--------------------------------------------------------------------------|
B|--------------------------------------------------------------------------|
G|--------------------------------------------------------------------------|
D|-13--14--13--14--15b16--14p13h14p13----13---------------------------------|
A|-p.h--------------------------------15----15-12~-----12--\10-\9---\7-\6---|
E|--------------------------------------------------12----------------------|



2:32-2:42 (solo part 2)

E|-------------------------------------------------------------10-|
B|----------------------------------------------10h12h13-12-13----|
G|---------------------------7--8h9h11-9-11-12--------------------|
D|---------------7h9h10-9-10--------------------------------------|
A|-6h7h9-7-9-10---------------------------------------------------|
E|----------------------------------------------------------------|


E|-11h12h14-12-14-14-/-20--19~~----19b20~~-----b20-b20-b20-b20-b20-b20-b20-20r19~-|
B|--------------------------------------------------------------------------------|
G|--------------------------------------------------------------------------------|
D|--------------------------------------------------------------------------------| 
A|--------------------------------------------------------------------------------|
E|--------------------------------------------------------------------------------|


(I`m really not sure about this part)
E|-12tr-15tr-19tr-15tr-12tr-15tr-19tr-15tr-12tr-15tr-19tr-15tr-22-22-22b24-22b24~~------|
B|--------------------------------------------------------------------------------------|
G|--------------------------------------------------------------------------------------|
D|--------------------------------------------------------------------------------------| 
A|--------------------------------------------------------------------------------------|
E|--------------------------------------------------------------------------------------|



2:42-2:45

both guitars
E|--------------------------------|
B|--------------------------------|
G|--------------------------------|
D|--------------------------------|
A|--------------------------------|
E|-3-2-0---3-2-0---3-2-0---0-2-3--|


E|--------------------------------|
B|--------------------------------|
G|--------------------------------|
D|--------------------------------|
A|--------------------------------|
E|-3-2-0---3-2-0---3-2-0---0-2-3--|



3:01-3:06

both guitars
E|--------------------------------|
B|--------------------------------|
G|--------------------------------|
D|--------9\8-------4-----8---8---|
A|--------7\6-------2-----6---6---|
E|-0-0-0-------0-0-----0----------|


E|--------------------------------|
B|--------------------------------|
G|--------------------------------|
D|--------9\8-------4-----8---8---|
A|--------7\6-------2-----6---6---|
E|-0-0-0-------0-0-----0----------|


E|--------------------------------|
B|--------------------------------|
G|--------------------------------|
D|--------9\8-------4-----8---8---|
A|--------7\6-------2-----6---6---|
E|-0-0-0-------0-0-----0----------|


E|-------------------------------|
B|-------------------------------|
G|-------------------------------|
D|-------------------------------|     
A|-------------------------------|
E|-3p2p0-3p2p0-3p2p0-3p2p0-0-2-3-|



3:11-3:15

guitar 1
E|-----------------------------|       
B|-----------------------------|      
G|-----------------------------|
D|-2---------------------------|
A|-2---/7--6----------------1--|
E|-0-----------6--7--2--3------|

guitar 2
E|---------------------------------|       
B|---------------------------------|      
G|---------------------------------|
D|-2-------------------------------|
A|-2---/7--6--/10-9--12--10--9--7--|
E|-0-------------------------------|


guitar 1 
E|--------------------|       
B|--------------------|      
G|--------------------|
D|-2------------------|
A|-2---/7--6----------|
E|-0-----------6--7---|

guitar 2 
E|-------------------|
B|-------------------|
G|-------------------|
D|-2---/5--4---------|
A|-2-----------6--7--|
E|-0-----------------|



3:15-3:20

both guitars 
E|------------------------------------------------|
B|------------------------------------------------|
G|------------------------------------------------|
D|-2-----4-----5-----8-----7-----5-----2----------|    
A|-2-----4-----5-----8-----7-----5-----2----------|
E|-0-----2-----3-----6-----5-----3-----0----------|


E|--------------------------------|
B|--------------------------------|
G|--------------------------------|
D|-2----------------------2--2----|
A|-2-----------/6---------2--2----|
E|-0-----------/8---------0--0----|


************************************

| /   slide up
| \   slide down
| h   hammer-on
| p   pull-off
| ~   vibrato
| +   harmonic
| x   Mute note
| b   Bend
| pb  Pre-bend
| br  Bend release
| pbr Pre-bend release
| brb Bend release bend
| p.h pinch harmonic
| tr  tremolo picking

************************************

            
            
Suggest correction
Creating personal tab
Creating personal tab
You can edit any tab online and save it as your Personal.

You can edit, replace or remove any tab part or add personal notes – all changes will be seen only by you.

Personal tabs can be accessed anytime from any device, even offline.
Learn more »
Give kudos to tab author, rate the tab!
1 2 3 4 5
comments
print report bad tab
guest
You may want to rate the tab now too:
select rating
Wanna post a correction for this tab? Suggest correction